Carbon Leaf - Desparation Song Chords & Tabs

 

Desparation Song Chords & Tabs

Carbon Leaf Chords & Tabs

Version: 1 Type: Chords 0 ratings
1 star 2 stars 3 stars 4 stars 5 stars
comments

Desparation Song Chords

   
This is one of the coolest songs ever,
it took me a while to figure it out, but here it is


e-----------------|------------------
b-----------------|------------------
g-----4------2----|------------------
d---4----2h4------|-4-2-2--------2---
a-2------------5--|-------5-2--------
E-----------------|-----------5------

Play this 3 times   Play this ever 4th time

After it speeds up it's just chords



D              Bm

Rig around the lake



the right on time part goes like this
[ Tab from: http://www.guitartabs.cc/tabs/c/carbon_leaf/desparation_song_crd.html ]
Bm                                    D          A
Right on time, would you stay, through the pouring rain
Bm                               D               A
Right on time, through the night, your laughter is my light


Chords
  Bm  D   A
e-2---0---0-
b-3---3---2-
g-4---2---2-           The song is in Bm, so if you want to add
d-4---0---2-           extra parts to the flute or anything, that's
a-2---0---0-           what key it was in.
E-2---0---0-
Comments