Capitaine Revolte - Le Grand Roque Chords & Tabs

 

Le Grand Roque Chords & Tabs

Capitaine Revolte Chords & Tabs

Version: 1 Type: Bass Tab 0 ratings
1 star 2 stars 3 stars 4 stars 5 stars
comments

Le Grand Roque Bass Tab

Voici Le Grand Roque de Capitaine Révolte
Et je voudrai remiercier la gamme de Ré majeur car sans elle je naurai jamais pu faire cette tab

G |--------------------------------------------------4----------------------------------|
D |-------------5-7---7----------------5-7--7-7---5-------------5-7---7-----------------|
A |-5-5--7--8------5--7--5--5--7--8----5-----------5-5--7--8-----5--7-5-----------------|
E |-------------------------------------------------------------------------------------|

G |--------------------------------------------------4----------------------------------------------------4----------------------|
D |-------------5-7---7-----------------5-7--7-7---5-------------5-7---7------------------5-7--7-7---5------------5-7---------7--|
A |-5-5--7--8------5--7---5-5--7-8------5-----------5-5--7-8------5--7----5-5--7-8------5----------5-5--7-8------8-8-8-----------|
E |------------------------------------------------------------------------------------------------------------------------------|

G |-------------------------4--------------------------------------------------------4------|
D |-------------5-7---7-7---5-------------5-7---7------------------5-7---7-7---5-----4------|
A |-5-5--7-8-------5-----------5-5--7-8------5--7-----5-5--7-8-----5---------------------5--|
E |-----------------------------------------------------------------------------------------|

G |-------------------------4----------------------------------------------|
D |-------------5-7---7-7---5-------------5-7---7-----------------5-7---7--|
A |-5-5--7-8------5-----------5-5--7-8------5---7----5-5--7-8-----5---7-5--|
E |------------------------------------------------------------------------|

G |-------------------------4----------------------------------------------------|
D |-------------5-7---7-7---5-------------5-7---7--------------4-5-7----------7--|
A |---5--7-8-------5-----------5-5--7-8------5--7---5-5--7-----------8-8-8-------|
E |------------------------------------------------------------------------------|
[ Tab from: http://www.guitartabs.cc/tabs/c/capitaine_revolte/le_grand_roque_btab.html ]
G |-------------------------4-------------------------------------------------------4----|
D |-------------5-7---7-7---5------------5-7---7------------------5-7---7-7---5----------|
A |-5-5--7-8------5-----------5-5--7-8------5--7-----5-5--7-8-----5--------------8----5--|
E |--------------------------------------------------------------------------------------|

    Bridge

G |-------------------------------------------------------------------------------|
D |--------------4----4-5-4---4-5----------4-----4----4-5-4---4-5-----------------|
A |-7-7-7-7------7---------7------5--7-7---7------7---------7------5--------------|
E |-------------------------------------------------------------------------------|

G |---------------------------------------|
D |------------------5-5-5-7-7-5----------|       X3
A |---8-8-5-5-7-5-------------------------|
E |---------------------------------------|

G |-7-6-4---6-4-----4-----------------------------|
D |---------7-----7-5---7-5-4-7-5-4---------------|
A |----------------------------------------5-7----|
E |-----------------------------------------------|

G |--------------------------------------------------------------------------------------------------|
D |-------------5-7---7-----------------5-7--7-----------------5-7---7-----------------5-7--5-7-5-7--|
A |-5-5--7--8------5--7--5--5--7--8----5---7---5-5--7--8-----5---7-5--5--7--8-----5------------------|
E |--------------------------------------------------------------------------------------------------|

G |-------------------------4--------------------------------------------------------4------------------------|
D |-------------5-7---7-7---5-------------5-7---7------------------5-7---7-7---5---------------5-7---------7--|
A |-5-5--7-8-------5-----------5-5--7-8------5--7-----5-5--7-8-----5-------------5-5--7-8-------8-8-8---------|
E |-----------------------------------------------------------------------------------------------------------|

G |--------------------------------------------------4----------------------|
D |-------------5-7---7----------------5-7--7-7---5-------------5-7---7-----|
A |-5-5--7--8------5--7--5--5--7--8----5-----------5-5--7--8-----5--7-8--5--|
E |-------------------------------------------------------------------------|

    Fin

G |-----------------------|
D |-------------5-7-------|   X3
A |-5-5--7--8-------------|
E |-----------------------|


Pour toute sugestion ou commentaire veuiller menvoyer à JR006@hotmail.com

Merci Gamme de Ré majeur!
Comments