Capdown - Bitches And Nike Shoes Chords & Tabs

 

Bitches And Nike Shoes Chords & Tabs

Capdown Chords & Tabs

Version: 5 Type: Tab 0 ratings
1 star 2 stars 3 stars 4 stars 5 stars
comments

Bitches And Nike Shoes Tab

   
Capdown
"Bitches And Nike Shoes" TAB (Full Version)
By Zen Zsigo

e---------------------|----------------------
b---------------------|----------------------
g---------------------|----------------------
d-3-3---3-5-6-5-3-----|-3-3---3-5-6-5-3-2----
a-----------------3---|----------------------
e---------------------|----------------------

e---------------------|----------------------
b---------------------|----------------------
g---------------------|----------------------
d-3-3---3-5-6-5-3-----|-3-3---3-5-6-5-3-2----
a-----------------3---|----------------------
e---------------------|----------------------

e---------------------|----------------------
b---------------------|----------------------
g---------------------|----------------------
d-3-3---3-5-6-5-3-----|-3-3---3-5-6-5-3-2----
a-----------------3---|----------------------
e---------------------|----------------------

e---------------------|----------------------
b---------------------|----------------------
g---------------------|----------------------
d-3-3---3-5-6-5-3-----|-3-3------------------
a-----------------3---|----------------------
e---------------------|----------------------

e---------------------|----------------------
b---------------------|----------------------
g---------------------|----------------------
d-------3-5-6-5-3-----|-3-3---3-5-6-5-3-2----
a-----------------3---|----------------------
e---------------------|----------------------

e---------------------|----------------------
b---------------------|----------------------
g---------------------|----------------------
d-3-3---3-5-6-5-3-----|-3-3---3-5-6-5-3-2----
a-----------------3---|----------------------
e---------------------|----------------------

e---------------------|----------------------
b---------------------|----------------------
g---------------------|----------------------
d-3-3---3-5-6-5-3-----|-3-3---3-5-6-5-3-2----
a-----------------3---|----------------------
e---------------------|----------------------

e---------------------|----------------------
b---------------------|----------------------
g---------------------|----------------------
d-3-3---3-5-6-5-3-----|-3-3---3-5-6-5-3-2----
a-----------------3---|----------------------
e---------------------|----------------------
 
e-------------------------
b-------------------------
g-------------------------
d-------------------------
a-8-8-11-11-10-10-9-9-8-8-
e-------------------------

e-------------------------
b-------------------------
g-------------------------
d-------------------------
a-8-8-11-11-10-10-9-9-8-8-
e-------------------------

e------------------------------------------
b------------------------------------------
g------------------------------------------
d---------------------8-8-11-11-10-10-9-9--
a-8-8-11-11-10-10-9-9----------------------
e------------------------------------------

e------------------------------------------
b------------------------------------------
g------------------------------------------
d---------------------8-8-11-11-10-10------
a-8-8-11-11-10-10-9-9----------------------
e------------------------------------------

e---------------------|----------------------
b---------------------|----------------------
g---------------------|----------------------
d-------3-5-6-5-3-----|-3-3---3-5-6-5-3-2----
a-----------------3---|----------------------
e---------------------|----------------------

e---------------------|----------------------
b---------------------|----------------------
g---------------------|----------------------
d-3-3---3-5-6-5-3-----|-3-3---3-5-6-5-3-2----
a-----------------3---|----------------------
e---------------------|----------------------

e---------------------|----------------------
b---------------------|----------------------
g---------------------|----------------------
d-3-3---3-5-6-5-3-----|-3-3---3-5-6-5-3-2----
a-----------------3---|----------------------
e---------------------|----------------------

e---------------------|----------------------
b---------------------|----------------------
g---------------------|----------------------
d-3-3---3-5-6-5-3-----|-3-3---3-5-6-5-3-2----
a-----------------3---|----------------------
e---------------------|----------------------

e-------------------------
b-------------------------
g-------------------------
d-------------------------
a-8-8-11-11-10-10-9-9-8-8-
e-------------------------
[ Tab from: http://www.guitartabs.cc/tabs/c/capdown/bitches_and_nike_shoes_tab_ver_5.html ]
e-------------------------
b-------------------------
g-------------------------
d-------------------------
a-8-8-11-11-10-10-9-9-8-8-
e-------------------------

e------------------------------------------
b------------------------------------------
g------------------------------------------
d---------------------8-8-11-11-10-10-9-9--
a-8-8-11-11-10-10-9-9----------------------
e------------------------------------------

e------------------------------------------
b------------------------------------------
g------------------------------------------
d---------------------8-8-11-11-10-10------
a-8-8-11-11-10-10-9-9----------------------
e------------------------------------------

e---------------------|----------------------
b---------------------|----------------------
g---------------1-1---|-----0-0--------------
d-----3-3-------------|---------------4-4----
a---------------------|----------------------
e---------------------|----------------------

e---------------------|----------------------
b---------------------|----------------------
g---------------1-1---|-----0-0--------------
d-----3-3-------------|---------------4-4----
a---------------------|----------------------
e---------------------|----------------------

e---------------------|----------------------
b---------------------|----------------------
g---------------1-1---|-----0-0--------------
d-----3-3-------------|---------------4-4----
a---------------------|----------------------
e---------------------|----------------------

e---------------------|----------------------
b---------------------|----------------------
g---------------1-1---|-----0-0--------------
d-----3-3-------------|---------------4-4----
a---------------------|----------------------
e---------------------|----------------------

e---------------------|----------------------
b---------------------|----------------------
g---------------1-1---|-----0-0--------------
d---1-3-3-------------|---1-----------4-4----
a---------------------|----------------------
e---------------------|----------------------

e---------------------|----------------------
b---------------------|----------------------
g---------------1-1---|-----0-0--------------
d---1-3-3-------------|---------------4-4----
a---------------------|----------------------
e---------------------|----------------------

e---------------------|----------------------
b---------------------|----------------------
g---------------1-1---|-----0-0--------------
d-----3-3-------------|---------------4-4----
a---------------------|----------------------
e---------------------|----------------------

e---------------------|----------------------
b---------------------|----------------------
g---------------1-1---|-----0-0--------------
d-----3-3-------------|---------------4-4----
a---------------------|----------------------
e---------------------|----------------------

e---------------------|----------------------
b---------------------|----------------------
g---------------1-1---|-----0-0--------------
d----3-3------1-------|---1-----------4-4----
a---------------------|----------------------
e---------------------|----------------------

e---------------------|----------------------
b---------------------|----------------------
g---------------1-1---|-----0-0--------------
d-----3-3-------------|---------------4-4----
a---------------------|----------------------
e---------------------|----------------------

e---------------------|----------------------
b---------------------|----------------------
g---------------1-1---|-----0-0--------------
d-----3-3-------------|---------------4-4----
a---------------------|----------------------
e---------------------|----------------------

e---------------------|----------------------
b---------------------|----------------------
g---------------1-1---|-----0-0--------------
d-----3-3-------------|---------------4-4----
a---------------------|----------------------
e---------------------|----------------------

e---------------------|----------------------
b---------------------|----------------------
g---------------1-1---|-----0-0--------------
d-----3-3-------------|---------------4-4-4--
a---------------------|----------------------
e---------------------|----------------------

And Thats It. Its Pretty Easy. You Can Try Altering The
Final Riff Here And There To Fit In With The Song Exactly,
But It Sounds Pretty Good How It Is.......Enjoy
Comments