Capdown - Bitches And Nike Shoes Chords & Tabs

 

Bitches And Nike Shoes Chords & Tabs

Capdown Chords & Tabs

Version: 4 Type: Tab 0 ratings
1 star 2 stars 3 stars 4 stars 5 stars
comments

Bitches And Nike Shoes Tab

Riff 1
e---------------------|----------------------
b---------------------|----------------------
g---------------------|----------------------
d-3-3---3-5-6-5-3-----|-3-3---3-5-6-5-3-2----
a-----------------3---|----------------------
e---------------------|----------------------
[ Tab from: http://www.guitartabs.cc/tabs/c/capdown/bitches_and_nike_shoes_tab_ver_4.html ]
Riff 2
e---------------------|----------------------
b---------------------|----------------------
g---------------1-1---|-----0-0--------------
d-0h1-3-3---0h1-------|-0h1-------0h1-4-4----
a---------------------|----------------------
e---------------------|----------------------

Riff 3
e---------------------|----------------------
b---------------1-1---|-----0-0--------------
g-----2-2-------1-1---|-----0-0-------3-3----
d-0h1-3-3---0h1-------|-0h1-------0h1-4-4----
a---------------------|----------------------
e---------------------|----------------------

That's basically it. The bass line pretty much follows the guitar line.
Listen to the song to work out the correct structure.
Comments