Capdown - Bitches And Nike Shoes Chords & Tabs

 

Bitches And Nike Shoes Chords & Tabs

Capdown Chords & Tabs

Version: 3 Type: Tab 0 ratings
1 star 2 stars 3 stars 4 stars 5 stars
comments

Bitches And Nike Shoes Tab

   
e------------------------------------------x8
b------------------------------------------
g------------------------------------------
d------------------------------------------
a-8-8-10h11-10h11-10---8-8-10h11-10h11-10-7
e--------------------8---------------------
[ Tab from: http://www.guitartabs.cc/tabs/c/capdown/bitches_and_nike_shoes_tab_ver_3.html ]
e-------------------------x2
b-------------------------
g-------------------------
d-------------------------
a-8-8-11-11-10-10-9-9-8-8-
e-------------------------wait for scratching play again

e------------------------------------------x2
b------------------------------------------
g------------------------------------------
d---------------------8-8-11-11-10-10-9-9--
a-8-8-11-11-10-10-9-9----------------------
e------------------------------------------
Miss off last 2 nines the second time

repeat these bits through he song.
They can be found at www.capdown.com
Comments