Capdown - Bitches And Nike Shoes Chords & Tabs

 

Bitches And Nike Shoes Chords & Tabs

Capdown Chords & Tabs

Version: 2 Type: Tab 0 ratings
1 star 2 stars 3 stars 4 stars 5 stars
comments

Bitches And Nike Shoes Tab

#----------------------------------PLEASE NOTE--------------------------------#
#This file is the author's own work and represents their interpretation of the#
#song. You may only use this file for private study, scholarship, or research.#
#-----------------------------------------------------------------------------#
#-- File created with Instab - http://www.pconline.com/~smcarey/instab.html --#
#-----------------------------------------------------------------------------#

Author/Artist: Capdown
Title: Bitches and Nike shoes
Album: Civil Disobedience
Transcribed by: Muzzy
Email: Muzzya@hotmail.com

This is an absolute class song. If there are any errors e-mail me. I did this fr

om memory i.e. without my guitar so there could be a few mistakes.
[ Tab from: http://www.guitartabs.cc/tabs/c/capdown/bitches_and_nike_shoes_tab_ver_2.html ]
------------------------------------------------------------------------------
------------------------------------------------------------------------------
------------------------------------------------------------------------------
----------33--5h6p5-3----33--5h6p5--3-2---------------------------------------
---------------------3--------------------------------------------------------
------------------------------------------------------------------------------
 This is the intro. Repeat three times then at 19 s (before 1st line play:    

------------------------------------------------------------------------------
------------------------------------------------------------------------------
------------------------------------------------------------------------------
-----33--5h6p5-3------33---------------------5h6p5--3------33--5h6p5-3-2------
-----------------3------------------------------------3-----------------------
------------------------------------------------------------------------------
                         First line of lyrics     Then repeat intro 3 times   

------------------------------------------------------------------------------
------------------------------------------------------------------------------
------------------------------------------------------------------------------
------------------------------------------------------------------------------
------------------------------------------------------------------------------
------------------------------------------------------------------------------
                                                                              

Comments