Capdown - Bitches And Nike Shoes Chords & Tabs

 

Bitches And Nike Shoes Chords & Tabs

Capdown Chords & Tabs

Version: 1 Type: Tab 0 ratings
1 star 2 stars 3 stars 4 stars 5 stars
comments

Bitches And Nike Shoes Tab

Bitches And Nike Shoes
By Capdown
From The Album Civil Disobedients
Tabbed By Jonathan Sture 

This is a great song and dead easy to play on all parts 

Guitar intro + main verse bit

e------------------------------------------
B------------------------------------------
G------------------------------------------
D-3-3--3/5-6-5--3-------3-3--3/5-6-5--3-2--
A-----------------3------------------------
E------------------------------------------

[ Tab from: http://www.guitartabs.cc/tabs/c/capdown/bitches_and_nike_shoes_tab.html ]
 No More This Time
e------------------------------------------
B------------------------------------------
G------------------------------------------
D----3-3-----6-6----5-5-----4-4------------
A0h3-----0h3-----0h3----0h3----------------
E------------------------------------------



 Skanky Bit
e------------------------------------------
B-5-5--8-8--7-7--6-6-----------------------
G-5-5--8-8--7-7--6-6-----------------------
D-3-3--6-6--5-5--4-4-----------------------
A------------------------------------------
E------------------------------------------


  
Hope this is ok! LIsten to the CD for the order of things and the timing of the skank part its fairly easy 

Any problems e-mail me at Michaelknightscandal@hotmail.com

Comments