Cantrell Jerry - Anger Rising Chords & Tabs

 

Anger Rising Chords & Tabs

Cantrell Jerry Chords & Tabs

Version: 1 Type: Tab 2 ratings
1 star 2 stars 3 stars 4 stars 5 stars
comments

Anger Rising Tab

   
Artist: Jerry Cantrell
Title: Anger Rising
Album: Boggy Depot                                                                         Done By: Kevin Prendergast


TUNNING IS A HALF STEP DOWN    Eb-Bb-Gb-Db-Ab-Eb

GUITAR I- AN ELCTRIC GUITAR WITH HEAVY DISTORTION
GUITAR II- AN ACOUSTIC GUITAR 

This part is played during the “ahhhhhh” part
Guitar I

E----------0------0------1-----3-----3----2----0----|
B--------0------0------1-----3-----3----2----0------|
G------4------2------2-----5-----2----3----1--------|
D----4------2-------3----5-----5----4----2----------|
A--2------0-------3----3-----5----4----2------------|
E---------------1---------3-----2----0--------------|


[ Tab from: http://www.guitartabs.cc/tabs/c/cantrell_jerry/anger_rising_tab.html ]
E------------------------------------------------------------|
B------------------------------------------------------------|
G------------------------------------------------------------|
D------------0-------------------------------------0---------|
A-0----2--2------------------------------------0------0------|
E----------------------2-2-2-2--1-1-1---0-0------------------|

THIS IS THE VERSE WHICH IS PLAYED IN GUITAR II WHICH IS PLAYED DURING 
THE "ALBAMA A TRAILER PARK" PART AND SO ON







E--------------------------------------------------------|
B--------------------------------------------------------|
G------------------7--1----------------------------------|
D-------7----9---7---2----3---4----7---9-----------------|
A------7---9---5---2----3---4----7---9-------------------|
E-----5---7-------0----1---2----5---7--------------------|

THIS IS THE CHOURUS  WHICH IS PLAYED DURING THE “ANGER RISING” PART
AND IS PLAYED ON GUITAR II
 


IM SORRY BUT I DON’T KNOW THE SOLO BUT HAVE FUN WITH
IT ANYWAY !
Comments