Cant Hang - Conscious Man Chords & Tabs

 

Conscious Man Chords & Tabs

Cant Hang Chords & Tabs

Version: 1 Type: Bass Tab 0 ratings
1 star 2 stars 3 stars 4 stars 5 stars
comments

Conscious Man Bass Tab

-------------------------------------------------------------------------------
			     CONSCIOUS MAN - Can't Hang
-------------------------------------------------------------------------------

Tabbed By : David Funk

e-mail: dgfunk@gmail.com 

Tuning: Standard Tuning (EADG)

 +Intro+
[ Tab from: http://www.guitartabs.cc/tabs/c/cant_hang/conscious_man_btab.html ]
G|---------------------------------------------------------------------------|
D|---------------------------------------------------------------------------|
A|3-3-6-5-3---5-6---8-10----3-3-6-5-3---3-1-3--3-1-3--5----------------------|
E|---------------------------------------------------------------------------|
                                                                                 X2
G|---------------------------------------------------------------------------|
D|---------------------------------------------------------------------------|
A|1--1-3-3---1-3-3--1-0-----1-0----------------------------------------------|
E|----------------------3-1-----3-1------------------------------------------|


 +verse 1 and 2+
G|--------------------------------------------------------------------------------|
D|--------------------------------------------------------------------------------|
A|3-3-6-5-3--x--8-10-10---------------------1--1-3-5-5---1-3-5---1-0-----1-0------|
E|------------------------3-3-6-5-3---3-1-1--------------------------3-1-----3-1--|


 +Solo/Outro+
G|--------------------------------------------------------------------------------|
D|--------------------------------------------------------------------------------|
A|3-3-6-5-3--x--8-10-10---------------------1--1-3-5-5---1-3-5---1-0-----1-0------|
E|------------------------3-3-6-5-3---3-1-1--------------------------3-1-----3-1--|


----------------
| x  Mute note  |
===============================================================================
Comments