Cannibal Corpse - The Bloodlands Chords & Tabs

 

The Bloodlands Chords & Tabs

Cannibal Corpse Chords & Tabs

Version: 1 Type: Tab 0 ratings
1 star 2 stars 3 stars 4 stars 5 stars
comments

The Bloodlands Tab

   
"The Bloodlands" by Cannibal Corpse
Off of the album "Vile"
Tabbed by Chris Rezendes

Many people consider this song to be the best Cannibal Corpse song with Corpse 
Grinder, many others consider it to be the best Cannibal Corpse song period.  
After I tabbed this song, I had to agree, as this song truly showcases the 
supreme talent of the guitarists, and, as a guitarist, I can say after this 
song, that Cannibal Corpse are now up there 
with Slayer (perhaps even beyond?) in the art of riffing.  

Some parts of the tablature are bound to be wrong, and any corrections or 
comments are welcome and encouraged and can be sent to dadmcbad@hotmail.com.

Tune to a drop Db (which means to drop D and then tune down half a step). 

Intro
-------------------------------------------------------------------------------------
---------------------------------------------------------33333333-66666666-55555555--
-22222222-55555555-66666666--22222222------------------------------------------------
--------------------------------------66666666-55555555------------------------------

----------------------------------------------------------------------
------------------------------------------------------------------7---
-22222222-55555555-44444444-22222222---------------------6----3---5---
-------------------------------------66666666-55555555---6----3-------

Main Riff
----------------------------------------------
----------------------------------------------
--2---------------1---------------------------
----3-2-0-6-3-2-0---3-2-0-5-3-2-0-------------
p.m.^ ^ ^   ^ ^ ^   ^ ^ ^   ^ ^ ^

Riff 1 (The master of all riffs)
--------------------------------------------------------------------------------------
------------------------------------------------------2222-5555-4444------------------
----------4----------------------------4444-1111-4444----------------3333-1111--------
--3-0-3-5---5-6666666666666-5555--3-0------------------------------------------4444---

Riff 2
--------------------------
--------------------------
--------------------------
-6-3-0-5-2-0--------------

Riff 3 A           B           C          ending
--------------|-----------|-----------|----------------------
--------------|-----------|-----------|----------------------
-10---10---10-|-9---9---9-|-7---7---7-|----------------------
-10-0-10-0-10-|-9-0-9-0-9-|-7-0-7-0-7-|--020305303-----------




[ Tab from: http://www.guitartabs.cc/tabs/c/cannibal_corpse/the_bloodlands_tab.html ]
Riff 4
----------------------------------------------
----------------------------------------------
---------6-----6------------------------------
-0-0-0-0-6-0-0-6------------------------------

ending 2
---------------------------------------------------
---------------------------------------------------
--3-----------7----4s6-----------------------------
----4-4s6-6s8---10-----9---------------------------

Interlude (My mind cannot conceive the massacre I behold...)
------------------------------------------------------------------------------------
------------------------------------------------------------------------------------
-22222222-5p2-22-5p2-22-33333333-6p3-33-6p3-33-11111111-----------------------------
--------------------------------------------------------33333333-22222222222222-----

------------------------------------------------------------------------------------------
-----------------------------------------------00000000-0h66666666-5555555555555555-------
-22222222-5p2-22-5p2-22-33333333-6p3-33-6p3-33--------------------------------------------
------------------------------------------------------------------------------------------

----------------------------------------------------------------------------------------
----------------------------------------------------------------------------------7---4-
-22222222-5p2-22-5p2-22-11111111-4p1-11-4p1-11-22222222-------------------6---3---5---2-
-------------------------------------------------------66666666-55555555--6---3---------

Cool riff
----------------------------------------------
----------------------------------------------
----------------------------------------------
----0-0000000000000000------------------------
p.m.  ^^^^^^^^^^^^^^^^  

Riff 5
----------------------------------------------
----------------------------------------------
----------0-2----0-2--------------------------
-00203020----023------------------------------

Riff 6
----------------------------------------------
----------------------------4-----------------
---333-----222-----0------4-------------------
-------666-----333---0000---------------------


Play order

Intro x1
Main Riff x7 and a half- play directly into Riff 1
Riff 1 x1
Riff 2 x4
Riff 1 x1
Riff 2 x4
Riff 1 x1
Riff 2 x4
Main Riff x3 and a half- play directly into 
Riff 3A x1
Ending x1
Riff 3B x1
Ending x1
Riff 3C x1
Ending x1
Riff 3B x1
Ending x1
Riff 4 x8
Ending 2 x2
Interlude x1
Cool Riff x8
Riff 5 x8
Riff 6 x8
Riff 5 x8
Comments