Cannibal Corpse - Sentenced To Burn Chords & Tabs

 

Sentenced To Burn Chords & Tabs

Cannibal Corpse Chords & Tabs

Version: 1 Type: Bass Tab 0 ratings
1 star 2 stars 3 stars 4 stars 5 stars
comments

Sentenced To Burn Bass Tab

*# - Repeat # times
* - mute

Eb :----------------*1|-------------------------------|
Bb :---------------- ||-------------------------------|
E  :---------------- ||-------------------------------|
Bb :---------------- ||3-2-1-0-3-2-1-0-3-2-1-0-3-2-1-0|

Eb :-------------------------------*3|-------------------------------*3|
Bb :------------------------------- ||------------------------------- ||
E  :------------------------------- ||------------------------------- ||
Bb :3-2-1-0-3-2-1-0-3-2-1-0-3-2-1-0 ||6-3-0-6-3-0-6-3-0-5-2-0-4-0-3-0 ||

Eb :-------------------------------|-------------------------------*1|
Bb :-------------------------------|------------------------------- ||
E  :-------------------------------|------------------------------- ||
Bb :3-2-1-0-3-2-1-0-3-2-1-0-3-2-1-0|3-2-1-0-3-2-1-0-3-2-1-0-3-2-1-0 ||

Eb :-------------------------------*3|-------------------------------*3|
Bb :------------------------------- ||------------------------------- ||
E  :------------------------------- ||------------------------------- ||
Bb :6-3-0-6-3-0-6-3-0-5-2-0-4-0-3-0 ||3-2-1-0-3-2-1-0-3-2-1-0-3-2-1-0 ||

Eb :-------------------------------*1|-------------------------------*3|
Bb :------------------------------- ||------------------------------- ||
E  :------------------------------- ||------------------------------- ||
Bb :3-2-1-0-3-2-1-0-3-2-1-0-3-2-1-0 ||3-2-1-0-3-2-1-0-3-2-1-0-3-2-1-0 ||

Eb :-------------------------------|-------------------------------*1|
Bb :-------------------------------|------------------------------- ||
E  :-------------------------------|------------------------------- ||
Bb :3-2-1-0-3-2-1-0-3-2-1-0-3-2-1-0|3-2-1-0-3-2-1-0-3-2-1-0-3-2-1-0 ||
[ Tab from: http://www.guitartabs.cc/tabs/c/cannibal_corpse/sentenced_to_burn_btab.html ]
Eb :-------------------------------*3|-------------------------------*1|
Bb :------------------------------- ||------------------------------- ||
E  :------------------------------- ||------------------------------- ||
Bb :6-3-0-6-3-0-6-3-0-5-2-0-4-0-3-0 ||3-2-1-0-3-2-1-0-3-2-1-0-3-2-1-0 ||

Eb :-------------------------------*1|-------------------------------*1|
Bb :------------------------------- ||------------------------------- ||
E  :------------------------------- ||------------------------------- ||
Bb :3-2-1-0-3-2-1-0-3-2-1-0-3-2-1-0 ||3-2-1-0-3-2-1-0-3-2-1-0-3-2-1-0 ||

Eb :-------------------------------|-------------------------------*3|
Bb :-------------------------------|------------------------------- ||
E  :-------------------------------|------------------------------- ||
Bb :3-2-1-0-3-2-1-0-3-2-1-0-3-2-1-0|3-2-1-0-3-2-1-0-3-2-1-0-3-2-1-0 ||

Eb :--------------------------------*1|----------------|----------------*1|
Bb :-------------------------------- ||----------------|---------------- ||
E  :-------------------------------- ||----------------|---------------- ||
Bb :2--3--2--5--3-5-2--3--2--5--3-5- ||5--6--5--8--6-8-|5--6--5--8--6-8- ||

Eb :----------------|----------------|----------------|----------------|
Bb :----------------|----------------|----------------|----------------|
E  :----------------|----------------|----------------|----------------|
Bb :0--3--6--6--0---|3--3--6--0--3---|0--3--6--6--0---|3--3--6--0--3---|

Eb :----------------|----------------|----------------|----------------|
Bb :----------------|----------------|----------------|----------------|
E  :----------------|----------------|----------------|----------------|
Bb :0--3--6--6--0---|3--3--6--0--3---|0--3--6--6--0---|3--3--6--0--3---|

Eb :|*-------------------------------*3|----------------|
Bb :| ------------------------------- ||----------------|
E  :| ------------------------------- ||----------------|
Bb :| 3-2-1-0-3-2-1-0-3-2-1-0-3-2-1-0 ||0-*-------------|
Comments