Cannibal Corpse - I Will Kill You Chords & Tabs

 

I Will Kill You Chords & Tabs

Cannibal Corpse Chords & Tabs

Version: 2 Type: Tab 0 ratings
1 star 2 stars 3 stars 4 stars 5 stars
comments

I Will Kill You Tab

Tabbed by:THE SANDMAN
Email:ryan5@iamwasted.com


------------------------------------------------------------
------------------------------------------------------------
------------------------------------------------------------
-----------------------------333333-------------------------
-------------3333-------------------2*-000-2*-000-2*--------
-111111444444----444400001111----------000----000-----------
                                       ###    ###

------------------------------------------------------------
------------------------------------------------------------
------------------------------------------------------------
-----------------------------333333/6-----6-9-8--6----6-9---
-------------3333----------------------00----------00-----8-
-111111444444----444400001111----------00----------00-------
                                       ##          ##
[ Tab from: http://www.guitartabs.cc/tabs/c/cannibal_corpse/i_will_kill_you_tab_ver_2.html ]
------------------------------------------------------------
------------------------------------------------------------
-------------3333------------3333/XXXX----------------------
-11111155555544445555111155554444/9999----------------------
-111111555555----555511115555---------8~--00----------------
------------------------------------------00----------------
                                          


-------------------------------------------------------------
-------------------------------------------------------------
-2-5-4--2-5-----2-5-4--2-5-----2-5-4--2-5--------------------
------------4--------------4--------------4------------------
-------------------------------------------------------------
-------------------------------------------------------------

-----------------------------
-----------------------------
-----------------------------
-----------------------------
-9---8-5-4-------------------
-7---6-3-2-------------------

enjoy
Comments