Cannibal Corpse - Hammer Smashed Face Chords & Tabs

 

Hammer Smashed Face Chords & Tabs

Cannibal Corpse Chords & Tabs

Version: 3 Type: Tab 0 ratings
1 star 2 stars 3 stars 4 stars 5 stars
comments

Hammer Smashed Face Tab

Cannibal Corpse
Hammer Smashed Face
Tomb of the Mutilated
Transcribed by Mike Kimball
mailto:bloodmetalcontent@yahoo.com
www.geocities.com/bloodmetalcontent/

As with all guitar tablature, a mono-spaced font
(e.g. Courier or Monaco) is required to display properly...

Fig. 1
|-------------------||---------------------
|-------------------||---------------------
|-------------------||---------------------
|--------------8----||----------55554444---
|--------------8sl\-||---------------------
|--0---0---0---6----||--00112222-----------

|-------------------||---------------------
|-------------------||---------------------
|-------------------||---------------------
|--------------8----||----------55554444---
|--------------8sl\-||---------------------
|--000-000-000-6----||--00112222-----------


Fig. 2
|-------------------||---------------------
|-------------------||---------------------
|-------------------||---------------------
|------9------------||------4--------------
|--7-----8---8------||--2-------3----------
|----6-----7---7-6--||----2---2---2-0-1----

Fig. 3
|------------------||-----------
|------------------||-----------
|------------------||-----------
|--4/5-4/5---------||--5-4-2----
|--4/5-4/5-1-------||--5-4-2----
|--2/3-2/3-----0---||--3-2-0----

[ Tab from: http://www.guitartabs.cc/tabs/c/cannibal_corpse/hammer_smashed_face_tab_ver_3.html ]
Fig. 4
|------------------------------------------------------------------
|------------------------------------------------------------------
|-----------------------7-------------------------------3----------
|-------------------9---7---7-6-5-------------------5---3---4-3-2--
|--7h10p7---6h9p6---9---5---7-6-5---3h6h3---2h5p2---5---1---4-3-2--
|-------------------7-0-----5-4-3-------------------3-0-----2-1-0--


Fig. 5
|-----------------------------------||----------
|-----------------------------------||----------
|-----------------------------------||----------
|-------------------4-5-4-----------||--5-4-2---
|-------------------4-5-4---1-------||--5-4-2---
|--7h10p7---6h9p6p0-2-3-2-0-----0---||--3-2-0---


Fig. 6
|-----------------------------------------------------
|-----------------------------------------------------
|------------------------7-------------------------3--
|--------------------9---7---------------------5---3--
|--7~~~~~10~7~~6~~9~~9---5---3~~~~~6~~3~~2~~5~~5---1--
|--------------------7-0-----------------------3-0----

Fig. 7
|---------------------------------
|---------------------------------
|------------------------------3--
|--------------------------5---3--
|--2~~~~~5~~~~~1~~~~~4~~~~~5---1--
|--------------------------3-0----

Fig. 8
|------------------------------------
|------------------------------------
|------------------------------------
|--2---------------------3---2---8\--
|--2---------------------3---2---8\--
|--0---0---0---2h3-2h3p2-1---0---6\--

****FOR EDUCATIONAL USE ONLY!!  USE THIS FOR COMMERCIAL****
****PURPOSES, AND WE WILL HUNT YOU DOWN, KILL YOU, THEN****
****TORTURE YOUR IMMORTAL SOUL FOR ALL ETERNITY!!!!!!!!****
Comments