Cannibal Corpse - Gallery Of Suicide Chords & Tabs

 

Gallery Of Suicide Chords & Tabs

Cannibal Corpse Chords & Tabs

Version: 2 Type: Tab 0 ratings
1 star 2 stars 3 stars 4 stars 5 stars
comments

Gallery Of Suicide Tab

                Cannibal Corpse - Gallery of Suicide (solo)
                    From the Album Live Cannibalism
               Copyright 2000 Metal Blade Records
                     Version 1.0 - February 2001

Transcribed by: Bobby Rafuse

For Questions, Comments, Newest Version, or Corrections contact
Bobby Rafuse: at metal_music69@hotmail.com

Check Out Death Warp, With More Transcriptions On It:
 http://tiger.towson.edu/~dalvis1

..  - palm mute          /  - slide up to
 \  - slide down to      ~  - vibrato
 h  - hammer on          b  - bend
 p  - pull off            Suffixes for bend
 T  - Tap                  ph - pinch harmonic
                           f - full bend    h - half bend
*  - see comment           r - release      t - tap bend
X  - percussion mute       ~ - vibrato bend
@  - slight palm mute     () - ghost note, sustained note
"  - tremolo pick          hb - hold bend
#(tr#) - Trill notes


Tune Gtr to Bb 

*Note* This is my first attempt tabbing a solo so it probably
       won't be 1000xbfbfda34lus I'm not that great of a soloist but
       it sounds okay to me. Let me know how it works out.


|--------------------------------------------------------------------------------------|
|--T-----------T-----------T-----------T-----------T-----------T-----------T-----------|
|-20p15(tr16)-20p15(tr16)-20p15(tr16)-21p15(tr16)-20p15(tr16)-20p15(tr16)-21p15(tr16)--|
|--------------------------------------------------------------------------------------|
|--------------------------------------------------------------------------------------|
|--------------------------------------------------------------------------------------|


|--------------------------------------------------------------------------------------|
|--T-----------T-----------T-----------T-----------T-----------T-----------T-----------|
|-21p15(tr16)-20p15h16p15-20p15~-----/23p18(tr19)-23p18(tr19)-23p18(tr19)-24p18(tr19)--|
|--------------------------------------------------------------------------------------|
|--------------------------------------------------------------------------------------|
|--------------------------------------------------------------------------------------|

[ Tab from: http://www.guitartabs.cc/tabs/c/cannibal_corpse/gallery_of_suicide_tab_ver_2.html ]
|--------------------------------------------------------------------------22b--22brb--|
|--T-----------T-----------T-----------T-----------T-----------T-----------------------|
|-23p18(tr19)-23p18(tr19)-24p18(tr19)-24p18(tr19)-23p18h19p18-23p18--------------------|
|-------------------------------------------------------------------20~~---------------|
|--------------------------------------------------------------------------------------|
|--------------------------------------------------------------------------------------|

   
    T        T        T        T        T        T
|-/23p19h20-23p19h20-24p19h20-23p19h20-24p19h20-23p19h20--T-------------T--------------|
|--------------------------------------------------------24p20~-------/23p19(tr20)-----|
|--------------------------------------------------------------------------------------|
|--------------------------------------------------------------------------------------|
|--------------------------------------------------------------------------------------|
|--------------------------------------------------------------------------------------|


|--T-----------T-----------T-----------T-----------T-----------T-----------T-----------|
|-23p19(tr20)-23p19(tr20)-24p19(tr20)-23p19(tr20)-23p19(tr20)-24p19(tr20)-24p19(tr20)--|
|--------------------------------------------------------------------------------------|
|--------------------------------------------------------------------------------------|
|--------------------------------------------------------------------------------------|
|--------------------------------------------------------------------------------------|


|--T-----------T-----------T-----------------------------------------------------------|
|-23p19(tr20)-24p19(tr20)-23p19(tr20)--17----17--17--17~-------------------------------|
|--------------------------------------19hb--19--19--19~-------------------------------|
|--------------------------------------------------------------------------------------|
|--------------------------------------------------------------------------------------|
|--------------------------------------------------------------------------------------|

There you go people. have fun.

Check Out Death Warp, With More Transcriptions On It:
 http://tiger.towson.edu/~dalvis1
Comments