Canned Heat - On The Road Again Chords & Tabs

 

On The Road Again Chords & Tabs

Canned Heat Chords & Tabs

Version: 3 Type: Tab 0 ratings
1 star 2 stars 3 stars 4 stars 5 stars
comments

On The Road Again Tab

On the road again by Canned heat:
Cool little song! The End Riff is always played when Guitar1
plays MainB. Im not sure how the rest of this song goes, I
only have the first 60 seconds to listen to. This is pretty much the whole songs riffs.
# Intro #Guitar1
E-----------------------12-|
B-------------------12-----|
G---------------12---------|
D-----------12-------------|
A-------12-----------------|
E---12---------------------|
:
# Riff #Guitar2 v=vibrato m=palm mute
E----mmmm--mm-----------------------------|\
B-----------------------------------------| \
G-----------------------------------------|  \
D----9999--99-7v-5v----9-12--12-14-15/9v--|   \
A-----------------------------------------|    \
E-----------------------------------------|     \
# Intro/Verse #Guitar1 !Palm Muted!           !Same Scale!
E----------!MainA!-----|-----!MainB!------|     /
B----------------------|------------------|    /
G----------------------|------------------|   /
D----------------------|------------------|  /
A----99999999999999999-|-9-9--12-14--14-9-| /
E----77777777777777777-|-7-7--10-12--12-7-|/
:
# End Riff #Guitar2
E---------------------|
B---------------------|
G---------------------|
D--9-12--12-14-15/9v--| !Play when Guitar2 plays
A---------------------|  MainB!
E---------------------|
:
Guitar1 Plays Intro/Verse Guitar2 Plays End Riff


Nice song, email me questions/comments or whatever at...
jimp_fx@hotmail.com.

~HalfDigested~
[ Tab from: http://www.guitartabs.cc/tabs/c/canned_heat/on_the_road_again_tab_ver_3.html ]
Comments