Canned Heat - Going Up The Country Chords & Tabs

 

Going Up The Country Chords & Tabs

Canned Heat Chords & Tabs

Version: 1 Type: Tab 0 ratings
1 star 2 stars 3 stars 4 stars 5 stars
comments

Going Up The Country Tab

   
Going Up the Country
Canned Heat
Album Version

 ================
[]CAPO ON FRET 1[]
 ================

Flute intro (arr. for guitar)

E----------------------------------------------------------------------------------------|
B-----------6----------------------------------------------------------------------------|
G----5h6h7-------5h7p5------------------5h7p5------------------5h7p5---------------------|
D-----------------------------8~~~8/12----------------8~~~~-----------------8~~~---------|
A-----------------------8h10--------------------8h10------------------8h10---------------|
E----------------------------------------------------------------------------------------|


E----------------------------------------------------------------------------------------|
B--------6--6----------------------------------------------------------------------------|
G---5h7---------5h7p5--------------------------------------------------------------------|
D----------------------------8~~~~-------------------------------------------------------|
A----------------------8h10--------------------------------------------------------------|
E----------------------------------------------------------------------------------------|


A
Gotta get goin'

And I can't stay alone now
        D
Cuz I'm tired of the way
                    A
I've been dragged around
       E
Well I gotta get goin baby
                    A
Find me a brand new home

VERSES

I'm goin up the country
Baby don't you want to go?
I'm goin up the country
Baby don't you want to go?
I'm goin' to someplace where
I've never been before

Well I'm goin' where the water tastes like wine
Well I'm goin' where the water tastes like wine
You can jump in the water and stay drunk all the time

FLUTE FILL

E----6-6---------------------------------------------------------------------------------|
B---------6h8-6--------------------------------------------------------------------------|
G----------------6h7---5h7p5--------------------5h7p5--------------5h7p5-----------------|
D------------------------------------8~~~--12--------------8~~~~---------------8~~~------|
A------------------------------8h10------------------8h10----------------8h10------------|
E----------------------------------------------------------------------------------------|

[ Tab from: http://www.guitartabs.cc/tabs/c/canned_heat/going_up_the_country_tab.html ]
E----------------------------------------------------------------------------------------|
B--------6--6----------------------------------------------------------------------------|
G---5h7---------5h7p5--------------------------------------------------------------------|
D----------------------------8~~~~-------------------------------------------------------|
A----------------------8h10--------------------------------------------------------------|
E----------------------------------------------------------------------------------------|

VERSE 3

I'm gonna leave the city, got to get away
I'm gonna leave the city, got to get away
All this fussin and fightin man you know I sure can't stay

Hey baby packin up the truck
You know we've got to leave today
Just exactly where were goin I cannot say but
We might even leave the USA
Well its a brand new game that I don't wanna play

BRIDGE

D
No use of you running
                A
Or screaming and crying
		 E
But you've got a home man
                 A
I guess I've got mine

OUTRO

E----------------------------------------------------------------------------------------|
B----------------------------------------------6-6---------------------------------------|
G----5--7----5-----------5----5--7---5-7-5-7-----------5-7----5--------------------------|
D----------8---8-------8----8-------------------------------8---8-8----------------------|
A----------------------------------------------------------------------------------------|
E----------------------------------------------------------------------------------------|

(short break)

E----------------------------------------------------------------------------------------|
B-----------6----------------------------------------------------------------------------|
G----5h6h7-------5h7p5------------------5h7p5------------------5h7p5---------------------|
D-----------------------------8~~~8/12----------------8~~~~-----------------8~~~---------|
A-----------------------8h10--------------------8h10------------------8h10---------------|
E----------------------------------------------------------------------------------------|


E----------------------------------------------------------------------------------------|
B--------6--6----------------------------------------------------------------------------|
G---5h7---------5h7p5--------------------------------------------------------------------|
D----------------------------8~~~~-------------------------------------------------------|
A----------------------8h10--------------------------------------------------------------|
E----------------------------------------------------------------------------------------|
Comments