Candlebox - Far Behind Chords & Tabs

 

Far Behind Chords & Tabs

Candlebox Chords & Tabs

Version: 3 Type: Bass Tab 0 ratings
1 star 2 stars 3 stars 4 stars 5 stars
comments

Far Behind Bass Tab

                           Far Behind
                           Candlebox

           Verse:
|---------|---------------|------------|-------------|------------|
|---------|---------------|------------|-------------|------------|
|-3---3-2-|-------------5-|-7-----7--7-|-5---5---0-2-|-3---3-3--2-|
|---------|-3---0-3--3----|-----7------|-------------|------------|

|---------------|------------|------------|------------|
|---------------|------------|------------|------------|
|-------------5-|-7-----7--7-|-5---5--0-2-|-3---3-3--2-|
|-3---0-3--3----|-----7------|------------|------------|

|----------------|------------|-------------|------------|
|----------------|------------|-------------|------------|
|--------------5-|-7-----7--7-|-5---5---0-2-|-3---3-3--2-|
|-3---0-3--3-----|-----7------|-------------|------------|

|------------|------------|-------------|------------|
|------------|------------|-------------|------------|
|------------|-7-----7--7-|-5---5---0-2-|-3---3-3--2-|
|-3---0-3--3-|-----7------|-------------|------------|

|------------|------------|--------------|----------|
|------------|------------|-----7--------|----10--9-|
|------------|-7-----7--7-|-5------------|----------|
|-3---0-3--3-|-----7------|--------5-7-8-|-8--------|
[ Tab from: http://www.guitartabs.cc/tabs/c/candlebox/far_behind_btab_ver_3.html ]
Chorus:
|-----------------|----------------|-------------|-----------------|
|-----------------|----------------|-------------|-----------------|
|-----------------|----7--7-7--7---|-5---5---0-2-|-3--3--3-3---3-2-|
|-3--3--3-3---3-2-|-0------------0-|-------------|-----------------|
                                                       I.
|-----------------------|-----------------|------------|----------|
|-----------------------|-----------------|------------|----------|
|------5----------------|----7--7-7----2/-|-5---5---0-2|-3---3--2-|
|-3--3---3--3-3--3--3-2-|-0----------0----|------------|----------|
(Repeat Verse and chorus)
II.
|---------------|
|---------------|
|-3--3--3-3---3-|
|---------------|

Solo:
|---------------------|--------------------|--------------------------|
|---------------------|--------------------|--------------------------|
|---------------------|----------------2-3-|-5---5-5--5---5-5--5-0-2-|
|-3--3--3-3--3-3--3-2-|-0--0--0-0--0-0-----|--------------------------|

|-------------------|-------------------------|------------------|
|-------------------|-------------------------|------------------|
|-3---3-3--3--3-3-2-|-------------------------|----------------0-|
|-------------------|-3---3--0-3--3-3-3--3-2-|-0--0--0-0--0-0---|

                                       
|-------------|-----------------------|
|-------------|-----------------------|
|-5---5---0-2-|-3---3--3-3--3-3--3--3-|
|-------------|-----------------------|

Bridge:
|-------------------------------------------------|
|-------------------------------------------------|
|-----------------------------------------------5-|
|-3---3--3-3--3-3---3---0h3-3---3--3-3--3-33/7---|

|--------------------------------------------------|
|--------------------------------------------------|
|-----------------------0h2------------------------|
|-0---0--0-0--0-0---0-------0---0--0-0--0-0--0---0-|

Bridge II-Repeats 7x            Fill
|-----------------|             |-------------|
|-----------------|             |-------------|
|-----7---------7-|             |-7-5---------|
|-0------0--0-0---|             |-----7-6-5-0-|

(Repeat Bridge 2x, Repeat Fill, Repeat Bridge 2x, Repeat Fill, Repeat Bridge, Repeat Fill 3x)

Ends in G

Tabbed by Joaquin Alvarado
durstmann@yahoo.com
Comments