Candlebox - Alright Chords & Tabs

 

Alright Chords & Tabs

Candlebox Chords & Tabs

Version: 1 Type: Tab 0 ratings
1 star 2 stars 3 stars 4 stars 5 stars
comments

Alright Tab

   
Band- Candlebox
Song- Alright

Tuning: Standard (E A D G B E)

standard tuning
[ Tab from: http://www.guitartabs.cc/tabs/c/candlebox/alright_tab.html ]
 (REPETE A FEW TIMES)
E|-----3-----------------------------------------------------|
B|--------3--------------------------------------------------|
G|-----------0-------0---------------------------------------|
D|--3-----------2----2--22----------0-h-2----2---------------|
A|------------------------------3------------3--3333-2--0----|
E|-----------------------------------------------------------|
Then you strum one of these (Im not sure) once or twice and 
pick the strings few times and then repete it.

VERSE

E--2--|   |--3--|
A--2--|   |--3--|
D--0--|   |--2--|
G--0--|   |--3--|
B-----|   |-----|
E-----|   |-----|

Im not very sure about the Chorus.. But later in the distorted part:

E-----------------------------|
A-----------------------------| (Then you repete it a few times)
D-----------------------------|
G--10-10---9-9---8-8---0-0-0--|
B--10-10---9-9---8-8---0-0-0--|
E--10-10---9-9---8-8---0-0-0--|
It's not all, but close. Have fun!
Comments