Candlebox - 10000 Horses Chords & Tabs

 

10000 Horses Chords & Tabs

Candlebox Chords & Tabs

Version: 3 Type: Tab 0 ratings
1 star 2 stars 3 stars 4 stars 5 stars
comments

10000 Horses Tab

   
"10,000 Horses"
standard tuning.
Send any corrections, comments, or requests to sl_mcclure@hotmail.com.

Intro/Verse:

e-------------0---------------0-----
B-------3---3---3-------3---3---3---
G-----2---2-------2---0---0-------0-
D---3---------------2---------------
A-----------------------------------
E-----------------------------------
[ Tab from: http://www.guitartabs.cc/tabs/c/candlebox/10000_horses_tab_ver_3.html ]
e-----------------------------
B-----0-------0-----0-------0-
G---2---2---2-----2---2---2---
D-2-------2-----2-------2-----
A-----------------------------
E-----------------------------

e-----------0---------------0-----
B-----3---3---3-------3---3---3---
G---2---2-------2---0---0-------0-
D-3---------------2---------------
A---------------------------------
E---------------------------------

e-----0-------0-----0-------0-
B---------------------0-------
G---2---2---2-----2-------2---
D-2-------2-----2-------2-----
A-----------------------------
E-----------------------------

Chorus: A5 G5 B5 F5

Comments