Candlebox - 10000 Horses Chords & Tabs

 

10000 Horses Chords & Tabs

Candlebox Chords & Tabs

Version: 2 Type: Tab 0 ratings
1 star 2 stars 3 stars 4 stars 5 stars
comments

10000 Horses Tab

Band: Candlebox
Song: 10 000 Horses
Album: Happy Pills
Tabber: Mike (big_pickle@hotmail.com)


Intro and verse

gtr.1 (acoustic)
e|-------------0---------------0--------------------------------------|
B|-------3---3---3-------3---3---3-------0-------0-------0-------0----|
G|o----2---2-------2---0---0-------0---4---4---4---4---2---2---2---2--|
D|o--3---------------2---------------5-------5-------4-------4--------|
A|--------------------------------------------------------------------|
E|--------------------------------------------------------------------|

e|-------------0---------------0--------------------------------------|
B|-------3---3---3-------3---3---3-------7-------7-------5-------5----|
G|-----2---2-------2---0---0-------0---4---4---4-------2---2---2-----o|
D|---3---------------2---------------5-------5-------4-------4-------o|
A|--------------------------------------------------------------------|
E|--------------------------------------------------------------------|


Chorus 1

gtr. 2 (electric with distortion)
e|------------------------------------------------|
B|------------------------------------------------|
G|--------------4-----------------------4---------|
D|--7-----5-----4-----3-----7-----5-----4-----3---|
A|--7-----5-----2-----3-----7-----5-----2-----3---|
E|--5-----3-----------1-----5-----3-----------1---|


e|----------------------------------------------------|
B|------5-----------3------------0--------------------|
G|--------4-----------2----------4--------------------|
D|----------5-----------3-----5-----------------------|
A|--------------------------2-------2-3-2-3-2-3-2-3---|
E|--5-----------3-------------------------------------|

Chorus 2
[ Tab from: http://www.guitartabs.cc/tabs/c/candlebox/10000_horses_tab_ver_2.html ]
gtr. 2 (electric with distortion)
e|--------------------------------------------------|
B|--------------------------------------------------|
G|o--------------4-----------------------4---------o|
D|o--7-----5-----4-----3-----7-----5-----4-----3---o|
A|---7-----5-----2-----3-----7-----5-----2-----3----|
E|---5-----3-----------1-----5-----3-----------1----|


e|------------------------------------------|
B|------5-----------3------------0----------|
G|--------4-----------2----------4----------|
D|----------5-----------3-----5-------------|
A|-------------------------2--------2-3-2-3-|
E|--5-----------3---------------------------|


e|----------------------------0---------------|
B|--------5---------0-0-------3---------------|
G|o---------4-------4-4-------2--------------o|
D|o--7--------5-----5-5-------3--------------o|
A|---7--------------------2---------2-3-2-3---|
E|---5------------3---------------------------|


solo:
e|--------------------------------------------------------------|
B|--------------------------------------------------------------|
G|o----11~------11~------11~------11~------11---9----11---9----o|
D|o--9--------9--------9--------9----------9----7----9----7----o|
A|--------------------------------------------------------------|
E|--------------------------------------------------------------|


e|------------------------------------------------------------------------|
B|------10-12-12b--12-10-----12-10-----12-10----12-10---------------------|
G|---11------------------11--------11--------11-------11--11p10p9---------|
D|----------------------------------------------------------------10-9----|
A|------------------------------------------------------------------------|
E|------------------------------------------------------------------------|


e|-------------------------------------------|
B|-------------------------------------------|
G|-----11~-----11~-----11~--11p9-------------|
D|---9-------9-------9-----------10-9~~~~----|
A|-------------------------------------------|
E|-------------------------------------------|

Well those are all of the parts. This is a great song from a great band so enjoy
it like I do!
Any questions, comments, or corrections? Feel free to email me
Mike (big_pickle@hotmail.com)

--------------------------------------------------------------------------------
Comments