Candlebox - 10000 Horses Chords & Tabs

 

10000 Horses Chords & Tabs

Candlebox Chords & Tabs

Version: 1 Type: Tab 0 ratings
1 star 2 stars 3 stars 4 stars 5 stars
comments

10000 Horses Tab

   
Artist: Candlebox
Song: 10,000 Horses
Album: Happy Pills
Tabbed by: Cody Morrison


Fig. A
E -----------0-----------------0-------
B -----3---3---3---------3---3---3----- 
G ---2---2-------2-----0---0-------0--- (play Fig B.)
D -3-----------------2----------------- (SECOND TIME: play Fig C.)
A -------------------------------------
E -------------------------------------
[ Tab from: http://www.guitartabs.cc/tabs/c/candlebox/10000_horses_tab.html ]
Fig. B
E -------------------------------------
B -----0-------0--------0-------0------
G ---4---4---4---4----2---2---2--------
D -5-------5--------4-------4---------- (play Fig. A again)
A -------------------------------------
E -------------------------------------

Fig. C
E -------------------------------------
B -----7-------7------5-------5--------
G ---4---4---4------2---2---2----------
D -5-------5------4-------4------------
A -------------------------------------
E -------------------------------------

Chorus:

(I really just pulled this out of my head.  If it doesn't sound right, thats why)

E ---  ---  ----  ---
B ---  ---  ----  ---
G ---  ---  ----  ---
D -9-  -7-  -11-  -7-
A -9-  -7-  -11-  -7-
E -7-  -5-  -9--  -5-
Comments