Candid Daydream - Trapeze Chords & Tabs

 

Trapeze Chords & Tabs

Candid Daydream Chords & Tabs

Version: 1 Type: Tab 0 ratings
1 star 2 stars 3 stars 4 stars 5 stars
comments

Trapeze Tab

- Ryan Mackie - Thank you Jim Stoddard for basically doing this all

Standard Tuning

Intro, Chorus, and Verse  (palm mute for verse)

E   ----------------------------------------------------------------|
A   ----------------------------------------------------------------|
D   -------------------------------------------2----------2---------|
G   ---------2-----------2------------------2----------2---------2--|
B   ------2---------2------------2-------0----------0---------0-----|
E   --0---------0-----------0---------------------------------------|

E   ------------------------------------------------------|
A   ------------------------------------------------------|
D   --------4-----------4------------------4-------4------|
G   -----2----------2----------2---------2-------2------4-| (2x)
B   -4---------4-----------4---------2--------2------2----|
E   ------------------------------------------------------|


laces come undone....

E   -------------0-----------0-------------0-------------0--|
A   -------------0-----------0-------------0-------------0--|
D   ----------4--4--------4--4---------2---2-------------1--|
G   --------2----2------4----4-------2-----2-------- 2---2--|
B   ------4------4----2------2-----0-------0-------2-----2--|
E   ---------------------------------------------0-------0--|
[ Tab from: http://www.guitartabs.cc/tabs/c/candid_daydream/trapeze_tab.html ]
E   -------------0-----------0-------------0-------------0--|
A   -------------0-----------0-------------0-------------0--|
D   ----------4--4--------4--4---------2---2-------------1--|
G   --------2----2------4----4-------2-----2-------- 2---2--|
B   ------4------4----2------2-----0-------0-------2-----2--|
E   ---------------------------------------------0-------0--|


Solo thing (verse is played in background)
--------------------------------------------------------------------------|
---3---/5---2--------/10---8---7------------------------------------------|
----------------2----------------7--6--7----6--7--9---6--7--6---9-9-9-9---|
--------------------------------------------------------------------------|
--------------------------------------------------------------------------|
--------------------------------------------------------------------------|

---------------------------------------------------------------------------|
---------------------------------------------------------------------------|
---11-11-11-11--12-12-12-12--14-14-14-14-14--16-16-16-16--18-18-18-18-(19)-|
---------------------------------------------------------------------------|
---------------------------------------------------------------------------|
---------------------------------------------------------------------------|

Listen to the song to learn the pattern of each part :)
Comments