Candid Daydream - Next Year Chords & Tabs

 

Next Year Chords & Tabs

Candid Daydream Chords & Tabs

Version: 1 Type: Tab 0 ratings
1 star 2 stars 3 stars 4 stars 5 stars
comments

Next Year Tab

e|------------------------------------------------------------------------|
B|/10--9------------------------------------------------------------------|
G|------9-----------------------------------------------------------------|
D|--------------9h11p9----9--11--9~--------7--7---------------------------|
A|-optional(11)-------11----------------7----------7-h9--/11--/12--9~-----|
E|------------------------------------------------------------------------|
[ Tab from: http://www.guitartabs.cc/tabs/c/candid_daydream/next_year_tab.html ]
e|------------------------------------------------------------------------|
B|------------------------------------------------------------------------|
G|--------------------------------------------------------------9-11--9-9-|
D|------------------------------------------------------------------------|
A|-7-h9--/11--/12--9---11p9-7--11h12p11h12p--9h11p9----9--11-9~-----------|
E|--------------------------------------------------11--------------------|

e|---------------|
B|-12--10--9-----|
G|-----------9---|
D|-------------9-|
A|---------------|
E|---------------|
Comments