Candid Daydream - Adam Grays Last Words Chords & Tabs

 

Adam Grays Last Words Chords & Tabs

Candid Daydream Chords & Tabs

Version: 1 Type: Tab 0 ratings
1 star 2 stars 3 stars 4 stars 5 stars
comments

Adam Grays Last Words Tab

   
- Ryan Mackie

This is the exact way they play the song, I live in liverpool, Candid's hometown, and
everyone around here knows it like this...it used to be on the band's site...but the
site has been down for a while :(


Verse

---x-----------0---0-----------0---|
---x---7---5---0---0---7---5---0---|
---8---6---4---3---1---6---4---3---|
---9---x---x---4---2---x---x---4---|
---9---x---x---4---2---6---4---4---|
---7---6---4---0---0---0---0---0---|

There's nothing else to say...       Take it Away....

----11---9--------                   ----0---0---|
----12---9---9----                   ----0---0---|
----13---9---9----                   ----1---3---|
----13---9---9----                   ----2---4---|
----11---9---x----                   ----2---4---|
----11---9---9----                   ----0---0---|

Bridge thing...play it a lot and you'll get it
[ Tab from: http://www.guitartabs.cc/tabs/c/candid_daydream/adam_grays_last_words_tab.html ]
---4---2--(2)-(4)---4----6---0---0--|
---4---2---4---6----5----7---0---0--|
---4---3---4---6----4----6---1---3--|  (X2)
---6---4---4---6---(6)--(8)--2---4--|
---6---4---2---4---(4)--(6)--2---4--|
--(4)--x---x---x----x----x---0---0--|
                                                                  (E)
listen to the song...most of the time he puts X where he normally has the 0
                                              9                           0
                                              9                           1
                                              9                           2
                                              7                           2
                                              X                           0

but thats if you really care :P

Thats about it, just listen to the song and you'llknow which parts go where.
Comments