Cameron Brown - Its A Jesus Thing Chords & Tabs

 

Its A Jesus Thing Chords & Tabs

Cameron Brown Chords & Tabs

Version: 1 Type: Tab 0 ratings
1 star 2 stars 3 stars 4 stars 5 stars
comments

Its A Jesus Thing Tab

   


Intro:
e-----7-------7-------5-------5-|
B---8---8---8---8---8---8---8---|
G-7-------5-------7-------5-----|
D-------------------------------|
A-------------------------------|
E-------------------------------|
\_______________________________/
         ^play 4 times^

Guitar I:
e-----7-------7-------5-------5-|-----7-------7-------5-------5-|
B---8---8---8---8---8---8---8---|---8---8---8---8---8---8---8---|
G-7-------5-------7-------5-----|-7-------5-------7-------5-----|
D-------------------------------|-------------------------------|
A-------------------------------|-------------------------------|
E-------------------------------|-------------------------------|

Guitar II
e-7-7-7-7-7-7-7-7-5-5-5-5-5-5-5-5-|-7-7-7-7-7-7-7-7-5-5-5-5-5-5-5-5-|
B-8-8-8-8-8-8-8-8-8-8-8-8-8-8-8-8-|-8-8-8-8-8-8-8-8-8-8-8-8-8-8-8-8-|
G-7-7-7-7-5-5-5-5-7-7-7-5-5-5-5-5-|-7-7-7-7-5-5-5-5-7-7-7-5-5-5-5-5-|
D-0-0-0-0-0-0-0-0-0-0-0-0-0-0-0-0-|-0-0-0-0-0-0-0-0-0-0-0-0-0-0-0-0-|
A---------------------------------|---------------------------------|
E---------------------------------|---------------------------------|

Guitar I:
e-----7-------7-------5-------5-|-----7-------7-------5-------5-|
B---8---8---8---8---8---8---8---|---8---8---8---8---8---8---8---|
G-7-------5-------7-------5-----|-7-------5-------7-------5-----|
D-------------------------------|-------------------------------|
A-------------------------------|-------------------------------|
E-------------------------------|-------------------------------|
[ Tab from: http://www.guitartabs.cc/tabs/c/cameron_brown/its_a_jesus_thing_tab.html ]
Guitar II
e-7-7-7-7-7-7-7-7-5-5-5-5-5-5-5-5-|-7-7-7-7-7-7-7-7-5-5-5-5-5-5-5-5-|
B-8-8-8-8-8-8-8-8-8-8-8-8-8-8-8-8-|-8-8-8-8-8-8-8-8-8-8-8-8-8-8-8-8-|
G-7-7-7-7-5-5-5-5-7-7-7-5-5-5-5-5-|-7-7-7-7-5-5-5-5-7-7-7-5-5-5-5-5-|
D-0-0-0-0-0-0-0-0-0-0-0-0-0-0-0-0-|-0-0-0-0-0-0-0-0-0-0-0-0-0-0-0-0-|
A---------------------------------|---------------------------------|
E---------------------------------|---------------------------------|

Guitar I:
e-----7-------7-------5-------5-|-----7-------7-------5-------5-|
B---8---8---8---8---8---8---8---|---8---8---8---8---8---8---8---|
G-7-------5-------7-------5-----|-7-------5-------7-------5-----|
D-------------------------------|-------------------------------|
A-------------------------------|-------------------------------|
E-------------------------------|-------------------------------|

Guitar II
e-7-7-7-7-7-7-7-7-5-5-5-5-5-5-5-5-|-7-7-7-7-7-7-7-7-5-5-5-5-5-5-5-5-|
B-8-8-8-8-8-8-8-8-8-8-8-8-8-8-8-8-|-8-8-8-8-8-8-8-8-8-8-8-8-8-8-8-8-|
G-7-7-7-7-5-5-5-5-7-7-7-5-5-5-5-5-|-7-7-7-7-5-5-5-5-7-7-7-5-5-5-5-5-|
D-0-0-0-0-0-0-0-0-0-0-0-0-0-0-0-0-|-0-0-0-0-0-0-0-0-0-0-0-0-0-0-0-0-|
A---------------------------------|---------------------------------|
E---------------------------------|---------------------------------|

Guitar I:
e-----7-------7-------5-------5-|-----7-------7-------5-------5-|
B---8---8---8---8---8---8---8---|---8---8---8---8---8---8---8---|
G-7-------5-------7-------5-----|-7-------5-------7-------5-----|
D-------------------------------|-------------------------------|
A-------------------------------|-------------------------------|
E-------------------------------|-------------------------------|

Guitar II
e-7-7-7-7-7-7-7-7-5-5-5-5-5-5-5-5-|-7-7-7-7-7-7-7-7-5-5-5-5-5-5-5-5-|
B-8-8-8-8-8-8-8-8-8-8-8-8-8-8-8-8-|-8-8-8-8-8-8-8-8-8-8-8-8-8-8-8-8-|
G-7-7-7-7-5-5-5-5-7-7-7-5-5-5-5-5-|-7-7-7-7-5-5-5-5-7-7-7-5-5-5-5-5-|
D-0-0-0-0-0-0-0-0-0-0-0-0-0-0-0-0-|-0-0-0-0-0-0-0-0-0-0-0-0-0-0-0-0-|
A---------------------------------|---------------------------------|
E---------------------------------|---------------------------------|

Outro:Fade out play twice
e-----7-------7-------5-------5-|
B---8---8---8---8---8---8---8---|
G-7-------5-------7-------5-----|
D-------------------------------|
A-------------------------------|
E-------------------------------|
Comments