Cambio - Lihim Chords & Tabs

 

Lihim Chords & Tabs

Cambio Chords & Tabs

Version: 1 Type: Tab 0 ratings
1 star 2 stars 3 stars 4 stars 5 stars
comments

Lihim Tab

   
Title: Lihim (acoustic)
Artist: Cambio
Sinulit ni: Coby Sabinorio

Guitar 2:
Intro: C-Eb (4x)

Guitar 1:
(Intro)

e----0-3-6-4-3-1-3---3-3-3-3-3-3-3-3-|
B--1---------------------------------|
G------------------------------------|
D------------------------------------|
A------------------------------------|
E------------------------------------|
*note: nasabay lang to sa "la,la,la,la..."

C hold
Natapos mo na ba?
Eb hold
Mula sa simula
C hold
Ayoko lang naman
Eb hold
Ang masagasaan

 C hold
**Anong sinabi mo?
Eb hold
Anong sinabi nya?
C hold
Ayoko ng gulo
Eb hold
Ipagtapat mo na
Em
Ang lahat...

e--3------|
B---3-----|
G----3-0--|
D---------|
A---------|
E---------|
	      Am
+Tungkol sa atin
  C
Nabibitin lang
   Em		A
Habang tumatagal

Guitar 1:
[ Tab from: http://www.guitartabs.cc/tabs/c/cambio/lihim_tab.html ]
e-----------------------------------11^-10^--8-8^--8-8--11^-10^--|
B--2-2/3--3-3-3/4--4-4-4/5--5-5-5/6------------------------------|
G----------------------------------------------------------------|
D----------------------------------------------------------------|
A----------------------------------------------------------------|
E----------------------------------------------------------------|
	 Dm
Nahihirapan na
	F- hold	   (intro chord pattern)
Umibig ng... lihim

(do verse chord pattern)
May nasasaktan
Dahil may naghihintay
May umaasa
Di mapalagay

(do verse chord pattern)
ano ang plano mo?
MAhal mo pa ba siya?
Kung mahal mo ako
Ipagtapat mo na
Em
Ang lahat...

(Repeat +)

Adlib
Guitar 2:
Am-C-Em-A-Dm-F

Guitar 1:

e-----------------------------------------|
B--5-6-7--5-7--5-6-7--5-7--5-6-7--5-7-7^--|
G-----------------------------------------|
D-----------------------------------------|
A-----------------------------------------|
E-----------------------------------------|

e----------------------------------11^-10^--8-8^--8-8-11^10^-10-8-8-8-8-8-8-|
B-2-2/3--3-3-3/4--4-4-4/5--5-5-5/6------------------------------------------|
G---------------------------------------------------------------------------|
D---------------------------------------------------------------------------|
A---------------------------------------------------------------------------|
E---------------------------------------------------------------------------|

Paano tayo
Di makaandar
Ano ang gagawin
Nawawalang lugar

(Repeat **)

Outro: (do intro chord pattern 2x)

%di masydo sure sa lyrics.
d ko p nrrinig ung hndi acoustic pro bka pde n rn yan.
enjoy mga moks!!!

Donnamhenggay!!!!
Comments