Cambio - Dv Chords & Tabs

 

Dv Chords & Tabs

Cambio Chords & Tabs

Version: 2 Type: Bass Tab 0 ratings
1 star 2 stars 3 stars 4 stars 5 stars
comments

Dv Bass Tab

   
Artist - Cambio
Song - DV
Album - Derby Light

Standard Tuning :: EADG


 s = Slap
 h = Hammer
 p = Pull-off
 b = Bend


The solo is played after "Ortigas, Libis, Katipunan, Cogio, Malate, Circumferencial
...." but before "Tandang Sora"
[ Tab from: http://www.guitartabs.cc/tabs/c/cambio/dv_btab_ver_2.html ]
                       s                        s
G|---------------------13h14------|------------11p9---------------|
D|-------------13h14--------------|0------------------11--9---7---|
A|--------------------------------|------10/12--------------------|
E|-12-----------------------------|-------------------------------|

                       s                          s   s   s
G|---------------------13h14------|--------------14------12b---------|
D|-------------13h14--------------|0--------12h14----12------14--12--|
A|--------------------------------|----------------------------------|
E|-0------------------------------|----------------------------------|
Comments