Cam Ly - Thuong Nho Nguoi Dung Chords & Tabs

 

Thuong Nho Nguoi Dung Chords & Tabs

Cam Ly Chords & Tabs

Version: 1 Type: Tab 0 ratings
1 star 2 stars 3 stars 4 stars 5 stars
comments

Thuong Nho Nguoi Dung Tab

   
[Artist not on database: stage name - Cam Ly(middle,last) 
Vietnamese female singer. Official website - www.camly.net]
======================================================================

"THUONG NHO NGUOI DUNG" - CAM LY
[tabbed by Thang Vu - josoncreep@hotmail.com]

(use BARRE-CHORDS)
verse: pick (root note and 1st,2nd,3rd string)
chorus: strum


===[INTRO:]===
          A                   A                   Bb                       Em/(E7)
e--------------------------------------------------------------------------------
b--------------------------------------------------------------------------------
g--------------12-14/16-14-12-14x--14-14/16-12-14-16---14h16-14---12h14p12-------
D---14-12-14---------------------------------------------------------------14----
A--------------------------------------------------------------------------------
E--------------------------------------------------------------------------------
       Em                Am             Bb 
---------------------------------------------------------------------------------
---------------------------------------------------------------------------------
---------------------14--12p14-----------------------------14p-14p---------------
---------------14/16------------16-14-16~---14/16-14-14h16-----------------------
---14-12-14----------------------------------------------------------------------
---------------------------------------------------------------------------------
                  Em             Em...
--------------------------------------------------------------------------------|
--------------------------------------------------------------------------------|
-------------------------------14-----------------------------------------------|
---16-14-12---14--------14x-------14h16-14-12h14~-------------------------------|
-----------------12--14---------------------------------------------------------|
--------------------------------------------------------------------------------|

===[VERSE 1:]===
    A                  Em
Gio lay canh cay nhan long
    A            Em
Hat cau au o nho nhau
      Em                A
Chim chieu le ban ngoai song       FILL 1:
    G                  Em         |--------------------------------------------|
Em con mong doi nguoi dung        |--------------------------------------------|
                                  |--14-14h16p14-12----------12-14-16-14-------|
                                  |-----------------14---14x-------------------|
    A                 Em          |--------------------------------------------|
Anh trang con soi mai dinh        |--------------------------------------------|
    A                Em
nho ai buong cao heo kho
     Em              A
song dai ca loi biet tam
    G              Em
nhu beo may dat ve dau

===[PRECHORUS 1:]=== 
                    A                              Em
-------------------------------------------------------------------------------
-------------------------------------------------------------------------------
-----12-14/16\14-12h14---12h14/16-14---12-14-14/16-----------------------------
--14-----------------------------------------------14--------------------------
-------------------------------------------------------------------------------
-------------------------------------------------------------------------------
                    A                         Em
-------------------------------------------------------------------------------|
----------------------------------------------17x------------------------------|
--------12-14/16-12-14--14h16-14--12-14-14/16----------------------------------|
--12/14------------------------------------------------------------------------|
-------------------------------------------------------------------------------|
-------------------------------------------------------------------------------|
[ Tab from: http://www.guitartabs.cc/tabs/c/cam_ly/thuong_nho_nguoi_dung_tab.html ]
===[CHORUS 1:]===
     Em              Am
ngay nao em dung ben song               	
              Bb                Em      FILL 2A:     
Thuong anh tu luc lua xanh tren dong    |g--14h16-12/14\12-12------------------| 
                                        |D--------------------14---------------|
     
 Em                Am                   FILL 2B:
Chanh long nghe khuc ca dao             |g-----14h16-14------------------------|
         
             Bb              Em         FILL 2C:
Lia thia con nho song dai da qua        |--------------------------------------|
                                        |--15/17\15-12-------------------------|
					|--------------14-14/16---14h16-12-----|
					|----------------------------------14--|
     Em                 Am	        |--------------------------------------|
Ngam ngui, chim sao bay xa              |--------------------------------------|
              
 Bb              Em                     FILL 2D:
Chim quyen con dung,le loi mot minh     |g--14h16-12/14\12-12-------------|
                                        |D--------------------14----------|
       Em                   Am
Chanh long, dau xot chim quyen
             Bb                Em
Sao anh danh buoc qua cau quen em

===[SOLO 1:]=== 
               A                    Em
e--------12--------------------------------
b-----------12-14--------------------------
g-----12------------16-14--12-14-16--------
D--14-------------------------------14x----
A------------------------------------------
E------------------------------------------
               A                    Em
e--------12--------------------------------
b-----------12-14--------------------------
g-----12------------16-14--12-14/16-16x----
D--14--------------------------------------
A------------------------------------------
E------------------------------------------
Em             Bb                     Em   
------------------------------------------
------------------------------------------
------12----------------------------------
---14----14/16-16--14h16-12--14-14/16-----
14------------------------------------14x-
------------------------------------------
Em             Bb                      Em
-------------------------------------------|
-------------------------------------------|
------12-----------------------------------|
---14----14-14/16--14h16-12--14/16-16--14x-|
14-----------------------------------------|
-------------------------------------------|

===[VERSE 2:]===
    A                 Em
Anh trang con soi mai dinh
    A                Em
nho ai buong cao heo kho
     Em              A
song dai ca loi biet tam
    G              Em
nhu beo may dat ve dau

===[PRECHORUS 2:]===  
                       A                             Em
e-------------------------------------------------------------------------------
b-------------------------------------------------------------------------------
g------12-14/16-12-12h14---12h14/16-14---12-14-14/16----------------------------
D---14-----------------------------------------------14-------------------------
A-------------------------------------------------------------------------------
E-------------------------------------------------------------------------------

e-------------------------------------------------------------------------------|
b----------------------------------------------------17x------------------------|
g------12-14/16-12-14---------14h16-14---12-14-14/16----------------------------|
D-12/14-------------------------------------------------------------------------|
A-------------------------------------------------------------------------------|
E-------------------------------------------------------------------------------|

===[CHORUS 2]===

===[SOLO 2:]===
   Em                Em					A...to verse below
e-------------------------------------------------------------------------------|
b-------------------------------------------------------------------------------|
g--------------------------12h14-----------12-14/16\14-12h14...-----------------|
D--12h14-12h14p12----14---------14-----14---------------------------------------|
A-----------------14------------------------------------------------------------|
A-------------------------------------------------------------------------------|


===[VERSE 3:]===
     A                  Em 
Gio lay canh cay nhan long     
    A            Em            FILL 3A:
Hat cau au o nho nhau          b---17-14-\12-12----12---------|
      Em                A      g----------------14------------|
Chim chieu le ban ngoai song
    G                  Em      FILL 3B:
Em con mong doi nguoi dung     e---------------------12-------|
			       b------------------------------|
			       g---14/16-12h14p12-------------|
			       D------------------14----------|
			       A------------------------------|
			       E------------------------------|
   
 Em                A           FILL 3C:
Chim chieu le ban ngoai song   g---14/16\14-12-14-------------|
                 G
Hoa khong thuong bau
    G            Em
bau con...buon...ai...

===[OUTRO]=== 
                 A                       Em
e-------------------------------------------------------------------------------
b-------------------------------------------------------------------------------
g------12-16-12-14---14/16-14---12-14-16----------------------------------------
D---14-----------------------------------14x------------------------------------
A-------------------------------------------------------------------------------
E-------------------------------------------------------------------------------
                 A                                 Em
e-------------------------------------------------------------------------------|
b-------------------------------------------------------------------------------|
g----12-16p14-12-14----14h16--12h14p12----12-14/16-17-17xxx---------------------|
D-14----------------------------------------------------------------------------|
A-------------------------------------------------------------------------------|
E-------------------------------------------------------------------------------|

ROCK ON =)


XXXXXXXXXXXXXXXXXXXXXXXXXXXXXXXXXXXXXXXXXXXXXXXXXXXXXXXXXXXXXXXXXXXXXXXXXXXXXXXXX
Comments