Calvin Harris - Well Be Coming Back Chords & Tabs

 

Well Be Coming Back Chords & Tabs

Calvin Harris Chords & Tabs

Version: 3 Type: Tab 0 ratings
1 star 2 stars 3 stars 4 stars 5 stars
comments

Well Be Coming Back Tab

Artist : Calvin Harris
Song   : We'll Be Coming Back (feat Example)
Album  : 18 Months (2012)
Standard tuning
Tabbed by: yusof09


____________________
Verse
____________________

Guitar 1 (Let ring)

e |--------------------------------------------------------|
B |--------------------------------------------------------|
G |--------------------------------------------------------|
D |-------2---------2----1-----5---------5----4------------|
A |---2/3-------2/3----2-----7-------5/7----5--------------|
E |--------------------------------------------------------|

e |--------------------------------------------------------|
B |--------------------------------------------------------|
G |--------------------------------------------------------|
D |-------2---------2----1-----5---------5----7------------|
A |---2/3-------2/3----2-----7-------5/7----9--------------|
E |--------------------------------------------------------|

Guitar 2 (Palm mute)
e |----------------------|
B |-----8----------------|
G |---9---9-7-9---9-7----| x until chorus
D |----------------------|
A |----------------------|
E |----------------------|

____________________
Pre Chorus
____________________
[ Tab from: http://www.guitartabs.cc/tabs/c/calvin_harris/well_be_coming_back_tab_ver_3.html ]
Guitar 1 (Let ring)
e |--------------------------------------------------------|
B |--------------------------------------------------------|
G |--------------------------------------------------------|
D |------9----------9----7-----9----------9----7-----------|
A |---10-------9/10----9----10-------9/10----9-------------|
E |--------------------------------------------------------|

e |--------------------------------------------------------|
B |--------------------------------------------------------|
G |--------------------------------------------------------|
D |-------2---------2----1---5-----------------------------|
A |---2/3-------2/3----2-----7-----------------------------|
E |--------------------------------------------------------|

Guitar 2 (Palm mute)

e |----------------------|
B |-----8----------------|
G |---7---7---7---7------| x4
D |---------9-------9----|
A |----------------------|
E |----------------------|

e |----------------------|
B |-----8----------------|
G |---9---9-7-9---9-7----| x2
D |----------------------|
A |----------------------|
E |----------------------|

Guitar 3 (Let ring)
Downstroke*

e |-------15-------------|
B |-----15---------------|
G |---16-----------------| x4
D |----------------------|
A |----------------------|
E |----------------------|

____________________
Chorus
____________________

e|------------|----------------|--------------|-----------------|
B|---------8--|-------------10-|------------12|------13-12------|
G|-5--7--9----|-7--9--11--12---|--9--11--12---|-9--12-----14-12-|
D|------------|----------------|--------------|-----------------|
A|------------|----------------|--------------|-----------------|
E|------------|----------------|--------------|-----------------|
Comments