Calogero - Face A La Mer Chords & Tabs

 

Face A La Mer Chords & Tabs

Calogero Chords & Tabs

Version: 2 Type: Tab 0 ratings
1 star 2 stars 3 stars 4 stars 5 stars
comments

Face A La Mer Tab

Artist: Calogero           |
Title: Face a la Mer       |
Album: 3                   |
Transcribed by: vic        |
Email: civ182@hotmail.com  |
============================

Pretty nice French band. 
I heard this song over the summer (2004) while I was in Beglium. 
It caught my attention, so here's the correct tab, enjoy! 

========================================================================
INTRO and VERSE 1

e|--3-----3--4--1---------1--3--------|
B|-----1------------------------4--3--|
G|---------------------1--------------| x2 for intro
D|------------------------------------| x4 for verse
A|------------------------------------|
E|------------------------------------|

========================================================================
CHORUS (heavily distorted)
These are the chords used: 

e|--------------------|
B|--------------------|
G|--5----3------------| x2
D|--5----3----3----5--|
A|--3----1----3----5--|
E|------------1----3--|


e|--------------------|
B|--------------------|
G|--8----3------------|
D|--8----3----3----5--|
A|--6----1----3----5--|
E|------------1----3--|


e|-----------------------------------|
B|-----------------------------------|
G|-----------------------------------| (palm muted)
D|--3---3---3---3---5---5---5---5----|
A|----3---3---3---3---3---3---3---3--|
E|-----------------------------------|

========================================================================
VERSE 2
[ Tab from: http://www.guitartabs.cc/tabs/c/calogero/face_a_la_mer_tab_ver_2.html ]
e|--3-----3--4--1---------1--3--------|
B|-----1------------------------4--3--|
G|---------------------1--------------| x5
D|------------------------------------|
A|------------------------------------|
E|------------------------------------|

========================================================================

CHORUS

========================================================================
INTERLUDE (it may sound like the chord changes, but that it the bass)

e|-----|
B|-----|
G|--5--| x6 8 bars
D|--5--|
A|--3--|
E|-----|

========================================================================
VERSE 3 (4th time stops half way)

e|--3-----3--4--1---------1--3--------|
B|-----1------------------------4--3--|
G|---------------------1--------------| x4
D|------------------------------------|
A|------------------------------------|
E|------------------------------------|

========================================================================

CHORUS x 2

========================================================================
OUTRO

e|-----------------------------------|
B|-----------------------------------|
G|-----------------------------------| x2 (palm muted)
D|--3---3---3---3---5---5---5---5----|
A|----3---3---3---3---3---3---3---3--|
E|-----------------------------------|

End on: 

e|------|
B|------|
G|--5~--|
D|--5~--|
A|--3~--|
E|------|
========================================================================
Comments