Calogero - Face A La Mer Chords & Tabs

 

Face A La Mer Chords & Tabs

Calogero Chords & Tabs

Version: 1 Type: Tab 0 ratings
1 star 2 stars 3 stars 4 stars 5 stars
comments

Face A La Mer Tab

Artist: Calogero Featurin Passi
Song: "Face a la Mer" (english translation is: face of the sea... i think)
Album: "3"

Calogero is a french version of coldplay... just a little more rocky... if ya kno what 
sayin.  I was in france this summer (never go to france) and i discovered this cd. check 
out.

Tabbed by: taztonik
Email: dont bother

Tuning: eadgbe
[ Tab from: http://www.guitartabs.cc/tabs/c/calogero/face_a_la_mer_tab.html ]
INTRO AND VERSE (main theme)
e|-3---3--4--1-------1-1-3-----------------------------------------------------|
B|---1---------------------------4----3----------------------------------------|
G|-----------------------------------------------------------------------------|
D|-----------------------------------------------------------------------------|
A|-----------------------------------------------------------------------------|
E|-----------------------------------------------------------------------------|

CHORUS

e|-----------------------------------------------------------------------------|
B|-----------------------------------------------------------------------------|
G|-----------------------------------------------------------------------------|
D|-3-3-3--6-6-6--8-8-8-8--6-6--8-8---------------------------------------------|
A|-3-3-3--6-6-6--8-8-8-8--6-6--8-8---------------------------------------------|
E|-1-1-1--4-4-4--6-6-6-6--4-4--6-6---------------------------------------------|

thaz all folks... buy this cd. seriously.its in french but its still hot.
===============================================================================
Comments