Calling - Wherever You Will Go Chords & Tabs

 

Wherever You Will Go Chords & Tabs

Calling Chords & Tabs

Version: 2 Type: Tab 1 rating
1 star 2 stars 3 stars 4 stars 5 stars
comments

Wherever You Will Go Tab

   
The Calling - Wherever You Will Go (Second tab I've completed.)

For Bethy D.

ORDER:  Verse X5; Chorus X2; Verse X4; Chorus X2; 2nd Chorus; Verse X2; Chorus X5; END

VERSE:

|-----------------|-----------------|-----------------|-----------------|
|-----------3-----|-----------3-----|-----------3-----|-----3-----3---3-|
|-----2---2---2---|-----2---2---2---|-----2---2---2---|-----------------|
|---4---4-------4-|---2---2-------2-|---4---4-------4-|---2-----2---0---|
|-5---------------|-4---------------|-2---------------|-----------------|
|-----------------|-----------------|-----------------|-3-----3---------|
  
Chorus:
[ Tab from: http://www.guitartabs.cc/tabs/c/calling/wherever_you_will_go_tab_ver_2.html ]
  D         Asus          E7sus4        G
|-0-----------0-------------0-----------0-----------------|
|-3-----------3-------------3-----------3-----------------|
|-2-----------2-------------2-----------0-----------------|
|-0-----------2-------------0-----------0-----------------|
|-0-----------0-------------2-----------2-----------------|
|-0-----------0-------------0-----------3-----------------|
   If I could, Then I would, I'll go wherever you will go
   Way up high,Or down low,  I'll go wherever you will go

2nd Chorus(???):

   Asus E7sus4 G       D  Asus E7sus4 Asus E7sus4 G       D  Asus E7sus4
|---0---0------0---|---0---0---0---|---0---0------0---|---0---0---0---|
|---3---3------3---|---3---3---3---|---3---3------3---|---3---3---3---|
|---2---2------0---|---2---2---2---|---2---2------0---|---2---2---2---|
|---2---0------0---|---0---2---0---|---2---0------0---|---0---2---0---|
|---0---2------2---|---0---0---2---|---0---2------2---|---0---0---2---|
|---0---0------3---|---0---0---0---|---0---0------3---|---0---0---0---|
   Gooooo...   Run...  heart  Runaway..Hope...    Run...  love...        

END:

  D Asus  E7sus4  G  E7sus4 
|-0---0---0---0---0---0---|
|-3---3---3---3---3---3---|
|-2---2---2---2---0---2---|
|-0---2---0---0---0---0---|
|-0---0---2---2---2---2---|
|-0---0---0---0---3---0---|

Email me at bretters_h@hotmail.com with comments, questions or concerns. Thanks.
Comments