Calling - Wherever You Will Go Chords & Tabs

 

Wherever You Will Go Chords & Tabs

Calling Chords & Tabs

Version: 2 Type: Bass Tab 0 ratings
1 star 2 stars 3 stars 4 stars 5 stars
comments

Wherever You Will Go Bass Tab

Intro: Play 1 Time
G--------------------------------
D--------------------------------
A--------5-----------------------
E-------------5--------7-------3-

Verse: Play till Chorus 
G-----------------------------------
D-----------------------------------
A----5-5-5-5------------------------
E-----------5-5-5-5-7-7-7-7-3-3-3-3-
     so lately............

Chorus: Play 2 times
G-----------------------------------
D-----------------------------------
A----5-5-5-5------------------------
E-----------5-5-5-5-7-7-7-7-3-3-3-3-
     if i could..............

Verse 2: Play till Chorus 2
G-----------------------------------
D-----------------------------------
A----5-5-5-5------------------------
E-----------5-5-5-5-7-7-7-7-3-3-3-3-
      and maybe.................
[ Tab from: http://www.guitartabs.cc/tabs/c/calling/wherever_you_will_go_btab_ver_2.html ]
Chorus 2: Play 2 times
G------------------------------------
D------------------------------------
A-----5-5-5-5------------------------
E------------5-5-5-5-7-7-7-7-3-3-3-3-
       if i could................

Bridge: Play 1 time
G------------------------------------------
D------------------------------------------
A--------------------------4-4-4-4-5-5-5-5-
E----7-7-7-7-3-3-3-3-5-5-5-5---------------
     runaway with.................  

G-----------------------------------
D-----------------------------------
A-----------------------------------
E-3-3-3-3-5-5-5-5-6-6-6-6-----------

Verse 3: Play till Chorus
G-----------------------------------
D-----------------------------------
A----5-5-5-5------------------------
E-----------5-5-5-5-7-7-7-7-3-3-3-3-
     i know now..............

Chorus: Play till end
G-----------------------------------
D-----------------------------------
A----5-5-5-5------------------------
E-----------5-5-5-5-7-7-7-7-3-3-3-3-
     if i could.............
Comments