Calling - Stigmatized Chords & Tabs

 

Stigmatized Chords & Tabs

Calling Chords & Tabs

Version: 8 Type: Tab 0 ratings
1 star 2 stars 3 stars 4 stars 5 stars
comments

Stigmatized Tab

STIGMATIZED EXTENDED VERSION
THE CALLING

Z3R0: hey guys! I got this from other tabs and added some improvements, hope
you'll love it! This is my favorite song. The original stigmatized version is
only 4+ minutes, this lasts for about 6+ minutes. If you havent heard it yet,
try getting one from kazaa users.

EXTENDED INTRO: (I TABBED THIS MYSELF!!!!)

guitar1
e|------------2-2-2-2----0-0-3-3-----------
B|-3-3-3-3----3-3-3-3----0-0-0-0---2-3---5-
G|-2-2-2-2----0-0-0-0----0-0-0-0---0-0---0-   [played 2x in intro]
D|-0-0-0-0----0-0-0-0----0-0-0-0---0-0---0-       ...stigmatized...
A|-x-x-x-x----x-x-x-x----x-x-x-x---x-x---x-
E|-3-3-3-3----3-3-3-3----3-3-3-3---3-3---5-

guitar2
e|-----0----------2----------3-------------
B|---2---2------3---3------3---3---2-3-2s5-
G|-3-------3--0-------0--4------4----------
D|-----------------------------------------   [played 2x in intro]
A|-----------------------------------------
E|-----------------------------------------

VERSE:

guitar1
e|------------2-2-2-2----0-0-3-3-----------
B|-3-3-3-3----3-3-3-3----0-0-0-0---2-3---5-
G|-2-2-2-2----0-0-0-0----0-0-0-0---0-0---0-   [played 4x]
D|-0-0-0-0----0-0-0-0----0-0-0-0---0-0---0-
A|-x-x-x-x----x-x-x-x----x-x-x-x---x-x---x-
E|-3-3-3-3----3-3-3-3----3-3-3-3---3-3---5-
[ Tab from: http://www.guitartabs.cc/tabs/c/calling/stigmatized_tab_ver_8.html ]
guitar2
e|-----0----------2----------3-------------
B|---2---2------3---3------3---3---2-3-2s5-
G|-3-------3--0-------0--4------4----------
D|-----------------------------------------   [played 4x]
A|-----------------------------------------
E|-----------------------------------------

guitar3
e|-2-3-5-3-2-------------3-2-3-2-0--------------
B|------------0-2-3-0--------------2-3-5-3-2--3-
G|----------------------------------------------  [played 4x as guitar 2
D|----------------------------------------------  plays its 3rd time]
A|----------------------------------------------
E|----------------------------------------------

Ending (AT LAST!!!)

  do Bridge tabs...


STIGMATIZED EXTENDED LYRICS:

 i write to you a letter
 to say my last goobye
 i think its time for me to go away
 the sun it seems to sink now
 like my love into a grave
 this life is not yet over
 it doesn't need to be saved
 well, the chambers in my heart
 they echo all the same
 this solitary man
 who drives himself insane
 well, i'll come back
 and smile once again
 i'll try and try until i die
 to make you understand...
 my love, i'll make you understand...
 cause were stigmatized!
 cause were stigmatized-tized-tized!
 yeah-yeah-yeah...


THAT's ALL!
If you have any comments/corrections just email me: z3r0_t0lerance@yahoo.com
THIS IS MY COPYRIGHT.
Comments