Calling - Stigmatized Chords & Tabs

 

Stigmatized Chords & Tabs

Calling Chords & Tabs

Version: 5 Type: Tab 0 ratings
1 star 2 stars 3 stars 4 stars 5 stars
comments

Stigmatized Tab

   
Stigmatized-The Calling
Album: Camino Palmero

Tune Down ½ Steps:
(1)Eb    (4)Gb
(2)Ab    (5)Bb
(3)Db    (6)Eb

I think the song need capo, but instead I decided to tune ½ step of my guitar tunings, 
you might try it with capo on the first fret with standard tunings and see how it works. 
For intro and the verse just listen to the CD to get the tempo of the strumming.


Intro & Verse riff
                           
Eb---x---x----x---x----x---x----x---x--|-
Bb---3---3----3---3----2---3----2---3--|-
Gb---4---2----4---2----2---2----2---2--|-
Db---0---0----0---0----0---0----0---0--|-
Ab---0---0----0---0----0---0----0---0--|-
Gb---3---3----3---3--------------------|-

          
Chorus riff
Again try to listen the CD for the tempo of the strumming    
   
Eb----3---2---0---0---0--0---
Bb----3---3---0---3---2--3---
Gb----0---0---2---2---2--2---
Db----0---0---0---0---0--0---
Ab----0----------------------
Eb----3----------------------

    
Eb----3---5---0---0---0--0---
Bb----3---3---0---3---2--3---
Gb----0---0---2---2---2--2---
Db----0---0---0---0---0--0---
Ab----0----------------------
Eb----3----------------------
[ Tab from: http://www.guitartabs.cc/tabs/c/calling/stigmatized_tab_ver_5.html ]
Eb---x---x----x---x----x---x----x---x--|-
Bb---3---3----3---3----2---3----2---3--|-
Gb---4---2----4---2----2---2----2---2--|-
Db---0---0----0---0----0---0----0---0--|-
Ab---0---0----0---0----0---0----0---0--|-
Gb---3---3----3---3--------------------|-


Half-time feel
This part is a bit hard for the tempo but if you listen carefully it will be easy
 
A…B…C#…D…C#  play 4 times


Bridge

Eb--0---0---0---0---0-0-0—|--
Bb--8---7---5---7---5-7-8-|--
Gb--7---7---7---7---7-7-7-|--
Db--0---0---0---0---0-0-0-|--
Ab--0---0---0---0---0-0-0-|--
Eb------------------------|--



Outro

A…B  C#…D…C# play 3 times     
A…B  C#…D…C#  G
D
G      A    Bm play 3 times
G               

Eb--------0--0----------|------------------
Bb--------0--0----------|------------------
Gb--------2--2--------7-|------7-----------
Db--------0--0--------5-|------7-----------
Ab--------0--0----------|------5-----------
Eb--------------0--3----|------------------

I don’t know whether all the chords and the riffs are perfectly accurate but you 
can email d_extremist@hotmail.com me if there are some corrections or any comments 
you want to make.   
Comments