Calling - Stigmatized Chords & Tabs

 

Stigmatized Chords & Tabs

Calling Chords & Tabs

Version: 3 Type: Tab 0 ratings
1 star 2 stars 3 stars 4 stars 5 stars
comments

Stigmatized Tab

------------------------------------------------------------
Stigmatized-The Calling
------------------------------------------------------------


Intro and verse
tuning:1/2 step down


eb-----x----x----       ----x----x
Bb-----x----x----       ----x----x
Gb-----4----2----2 times----6----7 2 times
Db-----0----0----       ----0----0
Ab-----x----x----       ----x----x 
Eb-----3----3----       ----5----7
[ Tab from: http://www.guitartabs.cc/tabs/c/calling/stigmatized_tab_ver_3.html ]
The strumming pattern is pretty easy you should be able to pick it up.


Chorus

eb----x---x---x----x----x
Bb----x---x---x----x----x
Gb----12--11--9----7----5
Db----0---0---0----0----0
Ab----x---x---x----x----x
Eb----12--10--9----7----5

The last chord might be wrong I'm not sure.

Thats all I could figure out so if anybody has the rest or any comments or corrections 
email me at stephen_white17@hotmail.com.
Comments