Calling - Nothings Changed Chords & Tabs

 

Nothings Changed Chords & Tabs

Calling Chords & Tabs

Version: 2 Type: Tab

Nothings Changed Tab

verse
e(------------------------------------------)
b(--444-444-x333-x333-x888-x888-x999-x888-6-)
g(--444-444-x444-x444-x888-x888-x888-x888-6-)
d(------------------------------------------)
a(------------------------------------------)
D(------------------------------------------)

chorus
e(----------------------)
b(--9986-6468-4698-4698-)
g(-----8----8----8----8-)
d(----------------------)
a(----------------------)
D(----------------------)

bridge
e(------------)(----------)
b(--3-33-33-4-)(--9x8x6x8-)
g(--3-33-33-3-)(--8x8x5x8-)
d(--1-11-11-1-)(--6x6x3x6-)
a(------------)(----------)
D(------------)(----------)
[ Tab from: http://www.guitartabs.cc/tabs/c/calling/nothings_changed_tab_ver_2.html ]
solo
e(---------------------------------------------------------------20-16-)
b(----9-9h11-11b-9-------------8/9h11-14-14-14-14-18-19-18-16----------)
g(-----------------67-9-9-8b-6--------------------------------18-------)
d(--56-----------------------------------------------------------------)
a(---------------------------------------------------------------------)
D(---------------------------------------------------------------------)

solo continued
e(---------------------------------------------------------11-)
b(----------------------------12-12-11-9-11-11b-9-13-11-14----)
g(-----------------8-11-11b-9---------------------------------)
d(--679-10-10b-8-67-------------------------------------------)
a(------------------------------------------------------------)
D(------------------------------------------------------------)