Calling - Just That Good Chords & Tabs

 

Just That Good Chords & Tabs

Calling Chords & Tabs

Version: 2 Type: Tab 0 ratings
1 star 2 stars 3 stars 4 stars 5 stars
comments

Just That Good Tab

   
                  "Just That Good" by The Calling


Intro:
              Rhythm                  Intro Fill (00:10)
        D#m7          A#m7
e|-------------------------------| |--------13-13~---8~---|
b|------7--7h9~--------2--2h4~---| |--------14-14~---8~---|
g|---6--6--6------6/1--1--1------| |---/13----------------|
d|---8--8---------8/3--3---------| |----------------------|
a|---6------------6/1------------| |----------------------|
E|-------------------------------| |----------------------|


   Intro Fill (00:34)        "You said, Don't Hate Me..."

                                      G#m           A#m
e|--------13----13------| |------------4-------------6------|
b|-----------14----14---| |------------4-------------6------|
g|---/13----------------| |------------4-------------6------|
d|----------------------| |------------6-------------8------|
a|----------------------| |------------6-------------8------|
E|----------------------| |------------4-------------6------|


Verse:
  Same As The Intro, w/ Distortion

PreChorus:

    "... And I'm Just That Gooooooooooooooooooooooood.  Yeeaaaaahhhhh."  (01:29)

                            B        C#        D#m         C#
                       e|---2--------4----------6----------4--------|
                       b|---4--------6----------7----------6--------|
                       g|---4--------6----------8----------6--------|
                       d|---4--------6----------8----------6--------|
                       a|---2--------4----------6----------4--------|
                       E|---2--------4----------6----------4--------|

PreChorus Solo:
   Played Over PreChorus
[ Tab from: http://www.guitartabs.cc/tabs/c/calling/just_that_good_tab_ver_2.html ]
e|---------------------6~~----7-7-7-7-7p6~~--14p11~~---16\14---/14-14-16-14-14~---|
b|---------7~~---7--9-------------------------------------------------------------|
g|---6--8-------------------------------------------------------------------------|
d|--------------------------------------------------------------------------------|
a|--------------------------------------------------------------------------------|
E|--------------------------------------------------------------------------------|

e|---14p11------------------------------------------------------------------------|
b|---------14-12-11-11^-11--------------------------------------------------------|
g|-------------------------13p11-13^14^13-11-11~~---------------------------------|
d|--------------------------------------------------------------------------------|
a|--------------------------------------------------------------------------------|
E|--------------------------------------------------------------------------------|


Chorus:

     F#       A#m7       B        G#m
e|---2---------1---------2---------4---|
b|---2---------2---------4---------4---|  End On
g|---3---------1---------4---------4---|
d|---4---------3---------4---------6---|   D#m7
a|---4---------1---------2---------6---|
E|---2---------1---------2---------4---|

Bridge:
  (02:26)

     F#   F#   F#
e|---9----9----9~~~---| |---------------|
b|---11---11---11~~---| |---7/4---7/4---|  Notes Played
g|---11---11---11~~---| |---------------|      Over
d|---11---11---11~~---| |---------------|    First Two
a|---9----9----9~~~---| |---------------|      F#'s
E|---9----9----9~~~---| |---------------|


All Solos After (02:45) Closely Resemble Segments of the PreChorus Solo,
And Are Therefor Worthless To Tab.  Refer to the PreChorus Solo to
Play Them.


Damn... All the #'s in this song make me think that they tune up 1/2 step, but whatev.
This tab is correct in standard form, so who gives a shit, right?  This is, in my
oh-so-humble opinion, the greatest song on their new album "Camino Palmero".  Go
to the stores and buy it.  It's a winner.  Send any corrections to Virii_116@Hotmail.com
This tab is more or less 100% right tho.  (Would I have it any other way?  Fuk na yo.)
[Poor Andy is Pimp]
                                             - Sean Rippen -
Comments