Calling - Final Answer Chords & Tabs

 

Final Answer Chords & Tabs

Calling Chords & Tabs

Version: 1 Type: Bass Tab

Final Answer Bass Tab

Riff One:

-------------------------------------------------|
-------------------------------------------------|
-------------------------------------------------|
-5-5-5-5-5-5-5-5-2-2-2-2-2-2-2-2-4-4-4-4-4-4-4-4-|

---------------------------------------------------|
---------------------------------------------------|
---------------------------------------------------|
-3-3-3-3-3-3-3-3--1-1-1-1-1-1-1-1--2-2-2-2-2-2-2-2-|

REPEAT UNTIL CHORUS AND PLAY THIS FAST.

Riff Two: (Chorus)

-----------------------------------------------|
-----------------------------------------------|
-----------------------------------------------|
-5---5---2---2---4---4---3---3---1---1---2---2-|
[ Tab from: http://www.guitartabs.cc/tabs/c/calling/final_answer_btab.html ]
HOLD THESE NOTES FOR ABOUT 2 Seconds each, they will blend
into the songs chorus.

Riff Three: (Same as riff one)

-------------------------------------------------|
-------------------------------------------------|
-------------------------------------------------|
-5-5-5-5-5-5-5-5-2-2-2-2-2-2-2-2-4-4-4-4-4-4-4-4-|

---------------------------------------------------|
---------------------------------------------------|
---------------------------------------------------|
-3-3-3-3-3-3-3-3--1-1-1-1-1-1-1-1--2-2-2-2-2-2-2-2-|

PLAY FAST

Riff three: Chorus


-----------------------------------------------|
-----------------------------------------------|
-----------------------------------------------|
-5---5---2---2---4---4---3---3---1---1---2---2-|

tab by : jestoni