Calling - Could It Be Any Harder Chords & Tabs

 

Could It Be Any Harder Chords & Tabs

Calling Chords & Tabs

Version: 3 Type: Tab 0 ratings
1 star 2 stars 3 stars 4 stars 5 stars
comments

Could It Be Any Harder Tab

Could It Be Any Harder
written by: Alex Band and Aaron Kamin
tabbed by: dabe (sammydavemelendez@yahoo.com)

Solo 
-------------------------------------------------------------------
---------------5h6p5-----------------------------------------------
------5h7--------------5/7-------5----4----5-----------------------
-------------------------------------------------------------------
-------------------------------------------------------------------
-------------------------------------------------------------------
[ Tab from: http://www.guitartabs.cc/tabs/c/calling/could_it_be_any_harder_tab_ver_3.html ]
------------------------------------------------7h8-7--------------
---------3/5---------------------------------8---------------------
----------------5----7----4---------------7------------------------
-------------------------------7/5---------------------------------
-------------------------------------------------------------------
-------------------------------------------------------------------

                               
------------------------------------------------------------------
-----6/8---8---8---10---10---8---8---6h8---6---5------------------
-----------------------------------------------------7-----7----5-
------------------------------------------------------------------
------------------------------------------------------------------
------------------------------------------------------------------
Comments