Calling - Could It Be Any Harder Chords & Tabs

 

Could It Be Any Harder Chords & Tabs

Calling Chords & Tabs

Version: 1 Type: Tab 0 ratings
1 star 2 stars 3 stars 4 stars 5 stars
comments

Could It Be Any Harder Tab

the basic riff is:

e---------------
a--8--10--3--7--
d-10--12--5--9--
g-(0)-----------
b---------------
E---------------


solo
[ Tab from: http://www.guitartabs.cc/tabs/c/calling/could_it_be_any_harder_tab.html ]
e---------------------------------------------------------------
a---------------------------------------------------------------
d---------------------------------------------------------------
g--------------------------2-0----------------------------------
b-1-3------3-1-0-1---1-3-0--------------------------------4-4-1-
E-----0-1-0--------0------------5s7-3-3-3-5-5-3-3-1-3-1-0-------

sometimes they play an open G string on the first chord 
but other than that, that's about it. Enjoy
Comments