Calling - Adrienne Chords & Tabs

 

Adrienne Chords & Tabs

Calling Chords & Tabs

Version: 5 Type: Tab 0 ratings
1 star 2 stars 3 stars 4 stars 5 stars
comments

Adrienne Tab

numbers below tab represent strums 

Trust me this is the correct intro as i have worked hard on perfecting it !



Guitar 1
[ Tab from: http://www.guitartabs.cc/tabs/c/calling/adrienne_tab_ver_5.html ]
-3-3-3-3----2--2--2--2--2--2----0---0----2-2--------------------
-3-3-3-3----3--3--3--3--3--3----3---3----3-3--------------------
-0-0-0-0----2--2--2--2--2--2----0---0----2-2-----------x4-------
-2-2-2-2----0--0--0--0--0--0----0---0----0-0--------------------
-2-2-2-2----x--x--x--x--x--x----x---x----x-x--------------------
-x-x-x-x----x--x--x--x--x--x----x---x----x-x--------------------

Guitar 2

-----------------------------------------------------------------
---------------------------------------------8---10-BU--8 let ring
-12---7-7---7h9-7/2-0----12--12---7-7----7h9--------------------
----------9----------------------------9-------------------------
-----------------------------------------------------------------
-----------------------------------------------------------------
Comments