Calling - Adrienne Chords & Tabs

 

Adrienne Chords & Tabs

Calling Chords & Tabs

Version: 3 Type: Tab 0 ratings
1 star 2 stars 3 stars 4 stars 5 stars
comments

Adrienne Tab

   
The Calling - Adrienne

I tabbed out the intro before.i've made some small changes to the chords and added
the post chorus riff.I think it sounds good for now but i hope this will lead 
somebody to tab out the whole song a bit more accuratly.this does sound good
though! 

------------------------------------------------------------------------------------------|
------------------------------------------------------------------------------------------|
----11b-----6-6b------6h8---6---------------9h11-11---------------------------------------|
------------------6------------6b--4-4--------------11-11------9h11---13--14b-------------|
-----------------------------------------------------------9h11---------------------------|
------------------------------------------------------------------------------------------|


Intro:  em7   D   C   Cadd9(032033) D
[ Tab from: http://www.guitartabs.cc/tabs/c/calling/adrienne_tab_ver_3.html ]
		        em7       D 
I've been thinkin about you, my love
    C                             Cadd9   D
And all the crazy things that you put me through
        em7                 D               C      Cadd9
Now I'm coming around, and throwing it back to you
 D                  em7           D    
Do you think about me, when you kiss him
        C                 Cadd9      D 
Can you taste me when you lick his skin
    em7                   D              C            Cadd9     D
And all the while, I showered you with trust and promises
         em7                 D 
What I'm needing now's some sweet revenge
   C                    Cadd9  D
To get back all that I lost then
  em7             D
I gave you all I had to give
    C             C      Cadd9 D
But I could never reach you


Chorus:
    em7       D   Cadd9       D
Adrienne, I thought I knew you
em7      D        Cadd9       D
Once again, you used me, used me

Adrienne, I should have left you

Long before, you used me, used me up 

-----------------
----------------- 
----11b-----6-6--
-----------------
-----------------
-----------------


Always spent my money,drove my car,
I treated you like a shining star,
But in my sky all ??? you are,
an i'll have the last laugh


-----------------------
----------------9b-7b-- 
----------10-12--------
----10h12--------------
-----------------------
-----------------------
when i see you walking with some other guy,
cos i know your gona end up all alone
so take.....
Comments