Calling - Adrienne Chords & Tabs

 

Adrienne Chords & Tabs

Calling Chords & Tabs

Version: 2 Type: Tab 0 ratings
1 star 2 stars 3 stars 4 stars 5 stars
comments

Adrienne Tab

   
title: Adrienne 
artist: The Calling
tab by: Lendon Wall

Intro

Guitar 1:
   Em7        D         Bmsus4       C    D
e---3---------2----------0-----------0----2---
B---3---------3----------3-----------1----3---
G---0---------2----------4-----------0----2---
D---2---------0----------4-----------2----0---
A---2---------0----------2-----------3----0---
E---0--------------------0--------------------

[ Tab from: http://www.guitartabs.cc/tabs/c/calling/adrienne_tab_ver_2.html ]
Guitar 2:
  Em7
E--3------------0---------------3------------0--3-------
B-----3-3----3-----3---------------3-3----3-------------
G----------0----------3-----------------0---------------
D-----------------------0-------------------------------
A-------------------------------------------------------
E-------------------------------------------------------

This is my first tab, I think it's pretty accurate, and please don't cuss me out if it's wrong.
Comments