California Guitar Trio - Good The Bad And The Ugly Theme Chords & Tabs

 

Good The Bad And The Ugly Theme Chords & Tabs

California Guitar Trio Chords & Tabs

Version: 1 Type: Tab 0 ratings
1 star 2 stars 3 stars 4 stars 5 stars
comments

Good The Bad And The Ugly Theme Tab

   
The Good, The Bad, and The Ugly Theme
As performed by the California Guitar Trio
Tabbed by: jason martin

This is an awesome version of this song.  If you haven't heard 
it I suggest you listen to it to get the timing down.  Any 
comments or suggestions: digthevibe@hotmail.com

Arranged for 3 Guitars

Intro: Gtr I

--7h12p7h12p7~~~~------------7h12p7h12p7~~~------10-------------
-----------------8-10-----------------------8-10----------------
----------------------9~~~--------------------------------------
----------------------------------------------------------------
----------------------------------------------------------------
----------------------------------------------------------------

--7h12p7h12p7~~~8-7--------7h12p7h12p7~~~-----------------------
--------------------9-7-------------------8h10------------------
-------------------------------------------------9--------------
----------------------------------------------------------------
----------------------------------------------------------------
----------------------------------------------------------------
________________________________________________________________


Gtr I
----------------------------------------------------------------
--0h7p0h7p0-------------0h7p0h7p0-----3------0h7p0h7p0----------
-------------0-2------------------0-2-------------------0-------
-----------------2----------------------------------------4-2-0-
----------------------------------------------------------------
----------------------------------------------------------------
Gtr II
--0------------0--------0-------------0--------0----------0-----
--0------------2--------0-------------3--------1----------2-----
--0------------2--------0-------------2--------0----------3-----
--2------------2--------2-------------0--------2----------0-----
--2------------0--------2-------------0--------3----------0-----
--0------------0--------0---------------------------------------
________________________________________________________________


Gtr I
----------------------------------------------------------------
--0h7p0h7p0-----------------------------------------------------
-------------2--------------------------------------------------
---------------2------------------------------------------------
----------------------------------------------------------------
----------------------------------------------------------------
Gtr II
--0-------0------0----------------------------------------------
--0-------2------0----------------------------------------------
--0-------2------0----------------------------------------------
--2-------2------2-----2-222-222-222-222-222-222-222-222-222-222
--2-------0------2----------------------------------------------
--0-------0------0----------------------------------------------
________________________________________________________________


Gtr I
----------------------------------------------------------------
----------------------------------0---3-------------------------
------------------------------------0---------------------------
--------------------------------2-------------------------------
------------------------------2---------------------------------
----------------------------------------------------------------
Gtr II
----------------------------------------------------------------
----------------------------------------------------------------
----------------------------------------------------------------
--222-222-222-222-222-222-222-222-222---------------------------
--------------------------------------2-222-222-222-222-222-222-
----------------------------------------------------------------
________________________________________________________________


Gtr I
------------------------------------------------2~~~----5-------
------0---3-----------------------------0---3-0------3----------
--------0---------------------------------0---------------------
----2---------------------------------2-------------------------
--2---------------------------------2---------------------------
----------------------------------------------------------------
Gtr II
----------------------------------------------------------------
----------------------------------------------------------------
----------------------------------------------------------------
----------------------------------------------------------------
-3-333-3------------------------------------2-222-2--5-555-555--
----------3-333-333-333-333-333-333-0-000-0---------------------
________________________________________________________________


Gtr I
--7~~~~~~~~-------------------------------3p0-------5~~~~~~-----
-------------------------------------5~~~-----5~~~~~------------
----------------------------------------------------------------
----------------------------------------------------------------
----------------------------------------------------------------
----------------------------------------------------------------
Gtr II
----------------------------------------------------------------
----------------------------------------------------------------
----------------------------------------------------------------
----------------------------------------------------------------
--555-555--------2-222-222-222---------------------0-000-00-----
------------------------------------------0-000-00--------------
Gtr III
------------------------------------------0--------0------------
------------------------------------------0--------2------------
------------------------------------------0--------2------------
------------------------------------------2--------2------------
------------------------------------------2--------0------------
------------------------------------------0--------0------------
________________________________________________________________


Gtr I
--------3p0-------5~~~~~~------3p0---5---3p0---5----3p0---0-----
--5~~~~-----5~~~~------------5-----5---5-----5----5-----3---0---
----------------------------------------------------------------
----------------------------------------------------------------
----------------------------------------------------------------
----------------------------------------------------------------
Gtr II
----------------------------------------------------------------
----------------------------------------------------------------
----------------------------------------------------------------
----------------------------------------------------------------
------------------0-000-00-----------0-00-------0-00------------
---------0-000-00---------------0-00-------0-00-----------------
Gtr III
---------0--------0-------------0----0-----0----0---------------
---------0--------2-------------0----2-----0----2---------------
---------0--------2-------------0----2-----0----2---------------
---------2--------2-------------2----2-----2----2---------------
---------2--------0-------------2----0-----2----0---------------
---------0--------0-------------0----0-----0----0---------------
________________________________________________________________


Gtr I
----------------------------------------------------------------
--3p0---0----------------------------*-----*pick-at-bridge*----*
------2---0-2p0---0------------------*-------------------------*
----------------2---0--2p0---0-------*---3-----------------4---*
---------------------------2---0-1---*-1---1---1-----2-2-2---2-*
-------------------------------------*-------1-----------------*
Gtr II
----------------------------------------------------------------
----------------------------------------------------------------
----------------------------------------------------------------
----------------------------------------------------------------
----3---2---0-------------5---3---1-1-1-1-1-1-1-1-2-2-2-2-2-2-2-
---------------3--1--3------------------------------------------
Gtr III
----------------------------------------------------------------
--------------------------3-------------------------------------
----0---------------------2---0---------------------------------
----2---0---2-------------0---x---3-3-3-3-3-3-3-3-4-4-4-4-4-4-4-
----3---2---0--2--2--2--------3---1-1-1-1-1-1-1-1-2-2-2-2-2-2-2-
---------------3--0--3------------------------------------------
________________________________________________________________


Gtr II
----------------------------------------------------------------
----------------------------------------------------------------
--0--0-0-0--0-0-0--0-0-0--0-0-0--0-0-0--0-0-0--0-0-0------------
--2--2-2-2--2-2-2--2-2-2--2-2-2--2-2-2--2-2-2--2-2-2------------
--2--2-2-2--2-2-2--2-2-2--2-2-2--2-2-2--2-2-2--2-2-2------------
--0--0-0-0--0-0-0--0-0-0--0-0-0--0-0-0--0-0-0--0-0-0------------
Gtr III
--0--0-0-0--0-0-0--0-0-0--0-0-0--0-0-0--0-0-0--0-0-0------------
--8--8-8-8--8-8-8--8-8-8--8-8-8--8-8-8--8-8-8--8-8-8------------
--9--9-9-9--9-9-9--9-9-9--9-9-9--9-9-9--9-9-9--9-9-9------------
--9--9-9-9--9-9-9--9-9-9--9-9-9--9-9-9--9-9-9--9-9-9------------
--7--7-7-7--7-7-7--7-7-7--7-7-7--7-7-7--7-7-7--7-7-7------------
--0--0-0-0--0-0-0--0-0-0--0-0-0--0-0-0--0-0-0--0-0-0------------
________________________________________________________________

[ Tab from: http://www.guitartabs.cc/tabs/c/california_guitar_trio/good_the_bad_and_the_ugly_theme_tab.html ]
Gtr I
----------------------------------------------------------------
--0h7p0h7p0-------------0h7p0h7p0-----3------0h7p0h7p0----------
-------------0-2------------------0-2-------------------0-------
-----------------2----------------------------------------4-2-0-
----------------------------------------------------------------
----------------------------------------------------------------
Gtrs II & III
--0--0-0-0-0-0-0--0-0-0-0--0-0-0-0-0--0-0-0-0--0-0-0-0-0--0-0-0-
--0--0-0-0-0-0-2--2-2-2-0--0-0-0-0-0--3-3-3-3--1-1-1-1-1--2-2-2-
--0--0-0-0-0-0-2--2-2-2-0--0-0-0-0-0--2-2-2-2--0-0-0-0-0--3-3-3-
--2--2-2-2-2-2-2--2-2-2-2--2-2-2-2-2--0-0-0-0--2-2-2-2-2--0-0-0-
--2--2-2-2-2-2-0--0-0-0-2--2-2-2-2-2--0-0-0-0--3-3-3-3-3--0-0-0-
--0--0-0-0-0-0-0--0-0-0-0--0-0-0-0-0----------------------------
________________________________________________________________


Gtr I
----------------------------------------------------------------
--0h7p0h7p0-----------------------------------------------------
-------------2--------------------------------------------------
------------------2---------------------------------------------
----------------------------------------------------------------
----------------------------------------------------------------
Gtrs II & III
--0-0-0-0-0-0-0-0-0~~~~~-------0~~~~----------------------------
--0-0-0-0-2-2-2-2-0~~~~~-------2~~~~----------------------------
--0-0-0-0-2-2-2-2-0~~~~~-------2~~~~----------------------------
--2-2-2-2-2-2-2-2-2~~~~~-------2~~~~----------------------------
--2-2-2-2-0-0-0-0-2~~~~~-------0~~~~----------------------------
--0-0-0-0-0-0-0-0-0~~~~~-------0~~~~----------------------------
________________________________________________________________ 


Gtrs I & II 
(play these chords high on the neck & use fingerstyle method.  
 Listen to the song to get the feel & vibe of it).

  C                   G                 D               Bm  

Gtr III
--0-------------------3-----------------2---------------2-------
--1-------------------0-----------------3---------------3-------
--0-------------------0-----------------2---------------4-------
--2-------------------0-----------------0---------------4-------
--3-------------------2-----------------0---------------2-------
----------------------3-----------------------------------------
________________________________________________________________


Gtr I
----------------------------------------------------------------
----------------------------------0---3-------------------------
------------------------------------0---------------------------
--------------------------------2-------------------------------
------------------------------2---------------------------------
----------------------------------------------------------------
Gtr II
----------------------------------------------------------------
----------------------------------------------------------------
----------------------------------------------------------------
--222-222-222-222-222-222-222-222-222---------------------------
--------------------------------------2-222-222-222-222-222-222-
----------------------------------------------------------------
________________________________________________________________


Gtr I
------------------------------------------------2~~~----5-------
------0---3-----------------------------0---3-0------3----------
--------0---------------------------------0---------------------
----2---------------------------------2-------------------------
--2---------------------------------2---------------------------
----------------------------------------------------------------
Gtr II
----------------------------------------------------------------
----------------------------------------------------------------
----------------------------------------------------------------
----------------------------------------------------------------
-3-333-3------------------------------------2-222-2--5-555-555--
----------3-333-333-333-333-333-333-0-000-0---------------------
________________________________________________________________


Gtr I
--7~~~~~~~~-------------------------------3p0-------5~~~~~~-----
-------------------------------------5~~~-----5~~~~~------------
----------------------------------------------------------------
----------------------------------------------------------------
----------------------------------------------------------------
----------------------------------------------------------------
Gtr II
----------------------------------------------------------------
----------------------------------------------------------------
----------------------------------------------------------------
----------------------------------------------------------------
--555-555--------2-222-222-222---------------------0-000-00-----
------------------------------------------0-000-00--------------
Gtr III
------------------------------------------0--------0------------
------------------------------------------0--------2------------
------------------------------------------0--------2------------
------------------------------------------2--------2------------
------------------------------------------2--------0------------
------------------------------------------0--------0------------
________________________________________________________________


Gtr I
--------3p0-------5~~~~~~------3p0---5---3p0---5----3p0---0-----
--5~~~~-----5~~~~------------5-----5---5-----5----5-----3---0---
----------------------------------------------------------------
----------------------------------------------------------------
----------------------------------------------------------------
----------------------------------------------------------------
Gtr II
----------------------------------------------------------------
----------------------------------------------------------------
----------------------------------------------------------------
----------------------------------------------------------------
------------------0-000-00-----------0-00-------0-00------------
---------0-000-00---------------0-00-------0-00-----------------
Gtr III
---------0---------0-------------0-----0-----0-----0------------
---------0---------2-------------0-----2-----0-----2------------
---------0---------2-------------0-----2-----0-----2------------
---------2-2-2-2-2-2-2-2-2-2-2-2-2-2-2-2-2-2-2-2-2-2-2-2-2-2-2--
---------2-2-2-2-2-0-0-0-0-0-0-0-2-2-2-0-0-0-2-2-2-0-0-0-0-0-0--
---------0-0-0-0-0-0-0-0-0-0-0-0-0-0-0-0-0-0-0-0-0-0-0-0-0-0-0--
________________________________________________________________


Gtr I
----------------------------------------------------------------
--3p0---0-------------------------------------------------------
------2---0-2p0---0---------------------------------------------
----------------2---0--2p0---0----------------------------------
---------------------------2---0-1-----1-1-1------2---2-2-2-----
----------------------------------------------------------------
Gtr II
----------------------------------------------------------------
----------------------------------------------------------------
----------------------------------------------------------------
----------------------------------------------------------------
----3---2---0-------------5---3---1-1-1-1-1-1-1-1-2-2-2-2-2-2-2-
----------------3-1--3------------------------------------------
Gtr III
----------------------------------------------------------------
--------------------------3-3-----------------------------------
----0-0-------------------2-2-0---------------------------------
----2-2-0-0-2-2-----------0-0-x---3-3-3-3-3-3-3-3-4-4-4-4-4-4-4-
----3-3-2-2-0-0-2-3--2--------3---1-1-1-1-1-1-1-1-2-2-2-2-2-2-2-
----------------3-1--3------------------------------------------
________________________________________________________________


Gtr I
----------------------------------------------------------------
--0h7p0h7p0-------------0h7p0h7p0-----3-------------------------
-------------0-2------------------0-2---------------------------
-----------------2----------------------------------------------
----------------------------------------------------------------
----------------------------------------------------------------
Gtr II
----------------------------------------------------------------
--------------------------------------3-3-3-3-------------------
--------------------------------------2-2-2-2-------------------
---------------2-2-2-2----------------0-0-0-0---0-2-222-222-222-
--2-2-2-2-2-2--0-0-0-0--2-2-2-2-2-2-2---------------------------
--0-0-0-0-0-0--0-0-0-0--0-0-0-0-0-0-0---------------------------
Gtr III
--0------------0--------0-------------0-------------------------
--0-0-0-0-0-0--2-2-2-2--0-0-0-0-0-0-0-3-3-3-3-------------------
--0-0-0-0-0-0--2-2-2-2--0-0-0-0-0-0-0-2-2-2-2-------------------
--2-2-2-2-2-2--2-2-2-2--2-2-2-2-2-2-2-0-0-0-0-------------------
--2-2-2-2-2-2--0-0-0-0--2-2-2-2-2-2-2-0-0-0-0-------------------
--0-0-0-0-0-0--0-0-0-0--0-0-0-0-0-0-0---------------------------
________________________________________________________________


Gtr I
--------------------7h12p7h12p7---------------------7h12p7h12p7-
----------------------------------------------------------------
----------------------------------------------------------------
----------------------------------------------------------------
----------------------------------------------------------------
----------------------------------------------------------------
Gtr II & III
----------------------------------------------------------------
----------------------------------------------------------------
----------------------------------------------------------------
-222-222-222-222-0--2-222-222-222-222-222-222-222-0-2~~~~~~~~---
----------------------------------------------------------------
----------------------------------------------------------------
Comments