Calibretto 13 - High 5 Chords & Tabs

 

High 5 Chords & Tabs

Calibretto 13 Chords & Tabs

Version: 1 Type: Bass Tab 0 ratings
1 star 2 stars 3 stars 4 stars 5 stars
comments

High 5 Bass Tab

Song: High 5
Artist: Calibretto 13
Album: Enter the Danger Brigade
Tabbed By: Josh Archambault


Verse 1
G|------------------------------------------------------|
D|-------22-------------4h6----------22----------22222--|
A|----55----22-33----55----5\3----55----22-33-55--------|
E|-33-------------33-----------33-----------------------|

Chorus
G|---------------------------------------------|
D|---------------------------------------------|
A|----5--2-33----5--2-33-----5--2-33----5------|
E|-3----------3----------3-----------3-----333-|
[ Tab from: http://www.guitartabs.cc/tabs/c/calibretto_13/high_5_btab.html ]
Verse 2
G|------------------------------------------------|
D|-------22---------------------22----------22222-|
A|----55----22-33----5535----55----22-33-55-------|
E|-33-------------33------33----------------------|

(Chorus)

Bridge
G|-------------------------|
D|-------------------------|
A|-3-----5----023---555555-|
E|----3-----3-----3--------|

(Verse 1)

2nd Bridge
G|-------------------------------------------------|
D|-------------------------------------------------|
A|-3-333-------5-555---0023-3-333-------5-5-555555-|
E|-------3-333-------3------------3-333------------|

(Chorus) x2

(Just Drums)

(Chorus) x2 (Pause for "High 5")

Outro
G|---------------|
D|---------------|
A|----55--------5|
E|-33----33--3---|

(Chorus) Draging out last note
Comments