Caliban - Tyranny Of Small Misery Chords & Tabs

 

Tyranny Of Small Misery Chords & Tabs

Caliban Chords & Tabs

Version: 1 Type: Bass Tab 0 ratings
1 star 2 stars 3 stars 4 stars 5 stars
comments

Tyranny Of Small Misery Bass Tab

Band:  Caliban
Album: Vent
Song:  Tyranny Of Small Misery Bass Tab

Copyright (c)  Lifeforce, 2001


Transcribed By: Def
Email:          edmantheruler@hotmail.com

Tuned in drop D

G|---------------------------------------------------------------------------|
D|---------------------------------------------------------------------------|
A|---------------------------------------------------------------------------|
D|-0--3--5-3-2--(<-add some variation, these are the frets..)----------------|

verse 1

G|---------------------------------------------------------------------------|
D|-----------------4-3-------------------------------------------------------|
A|-----5-6p5-4-5-6---------5-6p5-4-5-6-3h4-----------------------------------|
D|-0-0-----------------0-0---------------------------------------------------|
P.M P.M.
[ Tab from: http://www.guitartabs.cc/tabs/c/caliban/tyranny_of_small_misery_btab.html ]
G|---------------------------------------------------------------------------|
D|-----------------4-3-------------------------------------------------------|
A|-----5-6p5-4-5-6---------5-6p5-4-5-6---------------------------------------|
D|-0-0-----------------0-0-------------0*-1-0*-1-----------------------------|
P.M. P.M.

chorus

G|---------------------------------------------------------------------------|
D|---------------------------------------------------------------------------|
A|-5-3-0-1-------------------------------------------------------------------|
D|------------000000000000000000000000000000---------------------------------|

after that...

G|---(3 times)-------------|-------------------------------------------------|
D|-------------------------|-------------------------------------------------|
A|-------------------------|-------------------------------------------------|
D|-0--0--0--0--0--0h1------|-0-1-3-0-4-3-1-3---------------------------------|
pm pm pm

G|(3 more times)------|------------------------------------------------------|
D|--------------------|------------------------------------------------------|
A|--------------------|------------------------------------------------------|
D|-0--0--0--0--0--0h1-|-0-1-2-1-------(some variation there)-----------------|
pm pm pm P.M.

back to chorus
Comments