Cake - Stickshifts And Safetybelts Chords & Tabs

 

Stickshifts And Safetybelts Chords & Tabs

Cake Chords & Tabs

Version: 3 Type: Tab 0 ratings
1 star 2 stars 3 stars 4 stars 5 stars
comments

Stickshifts And Safetybelts Tab

   
Stickshifts and Safetybelts - Cake
Transcribed by Ryan Wiggans
If you have any comments or questions e-mail me at wonderboy2112@hotmail.com

The last part B is a little different than the first but you should be able
to hear it if you listen to the song.

Order:

Intro
A (no guitar)
A

B

A (no guitar)
A

B (v2)

C

A (no guitar)
A

B 

Intro:

e|--------------------------------------------|
B|--------------------------------------------|
G|--------------------------------------------|
D|---------------------------2h4-55-4h5p4p2---|
A|-------2---------2---0-2h4----------------4-|
E|-0-2h4-----0-2h4----------------------------|

e|--------------------------------------------|
B|--------------------------------------------|
G|--------------------------------------------|
D|---------------------------4----------------|
A|-------2---------2---2-4/6---6-7-4-2--------|
E|-0-2h4-----0-2h4---------------------4p2-0--|

e|--------------------------------------------|
B|---------------------5----------------------|
G|-----------------4h6------------------------|
D|-----------2-4/6----------------------------|
A|-------2h4----------------------------------|
E|-0-2h4--------------------------------------|

A:

e|--------------------------------------------|
B|--------------------------------------------|
G|--------------------------------------------|
D|-------------------4-6-4-6-4-6-4-6----------|
A|-2-4-2-4-2-4-2-4---2-2-2-2-2-2-2-2----------|
E|-0-0-0-0-0-0-0-0----------------------------|

e|--------------------------------------------|
B|--------------------------------------------|
G|--------------------------------------------|
D|-2-4-2-4-2-4-2-4----------------------------|
A|-0-0-0-0-0-0-0-0---2-4-2-4-2-4-2-4----------|
E|-------------------0-0-0-0-0-0-0-0----------|

B:

e|--------------------------------------------|
B|--------------------------------------------|
G|--------------------------------------------|
D|-------------------------2---------2--------|
A|-2-4-2-4-2-4-2-4---0-2h4-----0-2h4----------|
E|-0-0-0-0-0-0-0-0----------------------------|

e|---------------------------------------------------|
B|---------------------------------------------------|
G|---------------------------------------------------|
D|--------------------------------4h6-77-6h7p6p4-----|
A|-------2h4-55-4h5p4p2-----2-4/6----------------6---|
E|-0-2h4----------------4----------------------------|

e|--------------------------------------------|
B|--------------------------------------------|
G|--------------------------------------------|
D|-2---------------------------2-------2------|
A|---4-2-------------2---0-2h4---0-2h4--------|
E|-------4p2-0-0h2h4--------------------------|

e|--------------------------------------------|
B|--------------------------------------------|
G|--------------------------------------------|
D|--------------------------------4-----------|
A|-------2h4-55-4h5p4p2-----2-4/6---6---------|
E|-0-2h4----------------4---------------------|
[ Tab from: http://www.guitartabs.cc/tabs/c/cake/stickshifts_and_safetybelts_tab_ver_3.html ]
e|--------------------------------------------|
B|---------------------5----------------------|
G|-----------------4h6---6-4------------------|
D|-----------2-4/6-----------6p4-2------------|
A|-------2h4----------------------------------|
E|-0-2h4--------------------------------------|

B (v2)

e|--------------------------------------------|
B|--------------------------------------------|
G|--------------------------------------------|
D|-------------------------2---------2--------|
A|-2-4-2-4-2-4-2-4---0-2h4-----0-2h4----------|
E|-0-0-0-0-0-0-0-0----------------------------|

e|---------------------------------------------------|
B|---------------------------------------------------|
G|---------------------------------------------------|
D|--------------------------------4h6-77-6h7p6p4-----|
A|-------2h4-55-4h5p4p2-----2-4/6----------------6---|
E|-0-2h4----------------4----------------------------|

e|--------------------------------------------|
B|--------------------------------------------|
G|--------------------------------------------|
D|-------------------------2h4-55-4h5p4p2-----|
A|-------2-------2---0-2h4----------------4---|
E|-0-2h4---0-2h4------------------------------|

e|--------------------------------------------|
B|--------------------------------------------|
G|--------------------------------------------|
D|-2---------------------------4---2----------|
A|---4-2-------------2---2-4/6---6---4-2------|
E|-------4p2-0-0h2h4---------------------4h2--|

e|--------------------------------------------|
B|---------------------5----------------------|
G|-----------------4h6---6-4/1----------------|
D|-----------2-4/6----------------------------|
A|-------2h4----------------------------------|
E|-0-2h4--------------------------------------|

C

e|--------------------------------------------|
B|--------------------------------------------|
G|--------------------------------------------|
D|-2-4-2-4-2-4-2-4---2-4-2-4-2-4-2-4----------|x2
A|-0-0-0-0-0-0-0-0---0-0-0-0-0-0-0-0----------|
E|--------------------------------------------|

e|--------------------------------------------|
B|--------------------------------------------|
G|--------------------------------------------|
D|-2-----2-----2-----2-----2------------------|x2
A|---4p2---4p2---4p2---4p2---4p2--------------|
E|--------------------------------------------|

e|--------------------------------------------|
B|--------------------------------------------|
G|--------------------------------------------|
D|-2-4-2-4-2-4-2-4---2-4-2-4-2-4-2-4----------|
A|-0-0-0-0-0-0-0-0---0-0-0-0-0-0-0-0----------|
E|--------------------------------------------|

e|--------------------------------------------|
B|--------------------------------------------|
G|--------------------------------------------|
D|-4-6-4-6-4-6-4-6---4-6-4-6-4-6-4-6----------|
A|-2-2-2-2-2-2-2-2---2-2-2-2-2-2-2-2----------|
E|--------------------------------------------|

e|--------------------------------------------|
B|--------------------------------------------|
G|--------------------------------------------|
D|---------------------------2h4-55-4h5p4p2---|
A|-------2---------2---0-2h4----------------4-|
E|-0-2h4-----0-2h4----------------------------|

e|--------------------------------------------|
B|-------------------------------4------------|
G|-------------------------------4------------|
D|-2---------------------------4--------------|
A|---4-2-------------2---2-4/6----------------|
E|-------4p2-0-0h2h4--------------------------|
Comments