Cake - Stickshifts And Safetybelts Chords & Tabs

 

Stickshifts And Safetybelts Chords & Tabs

Cake Chords & Tabs

Version: 1 Type: Tab 1 rating
1 star 2 stars 3 stars 4 stars 5 stars
comments

Stickshifts And Safetybelts Tab

   
Cake: Stickshifts and Safetybelts
Tabs interpreted by Ben Walden.

I made these tabs a few years ago so they're not my best tabs.  I
hope they help you out anyway! If you have any questions, comments
or suggestions, please e-mail me at kenober80@hotmail.com 

This song is played off the standard blues scale.
Listen to the song to figure out the rhythm and lyrics.

p: pull off
h: hammer
(Put distortion halfway on)

E----------------------------------------------------------------------
B----------------------------------------------------------------------
G----------------------------------------------------------------------
D---------------------------0h2--4b5b4b5--4--2p0-----------------------
A-------0h2-------0h2--0h4------------------------------0h2-------0h2--
E--0h4-------0h4-----------------------------------0h4-------0h4-------


										   
E----------------------------------------------------------------------
B-------------------------------------------------------------5--------
G-------------------------------------------------------4--6-----------
D----------4--2\1/2----------------------------2---4/6-----------------
A--2--4/6------------4--2----------------2--4--------------------------
E--------------------------4p2--0--2--4--------------------------------



E----------------------------------------------------------------------
B----------------------------------------------------------------------
G--------------------------2--2--2--2--2--2--2------------------------
D--2--2--2--2--2--2--2--2--2--4--2--4--2--4--2--4--2--4--4--2--4--2----
A--2--4--2--4--2--4--2--4--0--0--0--0--0--0--0--0--2--2--2--2--2--2-------
E--0--0--0--0--0--0--0--0--------------------------0--0--0--0--0--0----



E----------------------------------------------------------------------
B----------------------------------------------------------------------
G----------------------------------------------------------------------
D--4--2--4--2--2--2--2--2--2--2--2--2--2--2--2--2--2--2--2--2----------
A--2--2--2--2--4--2--4--2--2--4--4--2--4--2--4--2--4--2--4--4------0h2-
E--0--0--0--0--0--0--0--0--0--0--0--0--0--0--0--0--0--0--0--0--0h4-----



E----------------------------------------------------------------------
B----------------------------------------------------------------------
G----------------------------------------------------------------------
D-------------------------------------------------0--2--4--5\4/5--4--2-
A-------0h2---------2--4--5\4/5--4--2p0--0--2--4-----------------------
E--0h4-------0h2h4-----------------------------------------------------



E----------------------------------------------------------------------
B----------------------------------------------------------------------
G----------------------------------------------------------------------
D--0--2----------------------------------0h2-------0h2-----------------
A--------4--2-----------------0--2--0h4-------0h4------------0h2--4----
E--------------4--2--0--2--4----------------------------0h4------------



E----------------------------------------------------------------------
B---------------------------------------------------------5------------
G---------------------------------------------------4--6-----6--4------
D-------------------------------------------2--4/6-----------------6-4-
A--5\4/5--4--2p0--0--2--4/6-----------2--4-----------------------------
E----------------------------0--2--4-----------------------------------



E----------------------------------------------------------------------
B----------------------------------------------------------------------
G-----------------------------2--2--2--2--2--2--2--2-------------------
D-----2--2--2--2--2--2--2--2--2--4--2--4--2--4--2--4--2--4--4--2--4--2-
A--2--2--4--2--4--2--4--2--4--0--0--0--0--0--0--0--0--2--2--2--2--2--2-
E-----0--0--0--0--0--0--0--0--------------------------0--0--0--0--0--0-



E----------------------------------------------------------------------
B----------------------------------------------------------------------
G----------------------------------------------------------------------
D--4--2--4--2--2--2--2--2--2--2--2--2--2--2--2--2--2--2--2--2----------
A--2--2--2--2--4--2--4--2--2--4--4--2--4--2--4--2--4--2--4--4------0h2-
E--0--0--0--0--0--0--0--0--0--0--0--0--0--0--0--0--0--0--0--0--0h4-----


[ Tab from: http://www.guitartabs.cc/tabs/c/cake/stickshifts_and_safetybelts_tab.html ]
E----------------------------------------------------------------------
B----------------------------------------------------------------------
G----------------------------------------------------------------------
D------------------------------------------------0--2--4--5\4/5--4-2-0-
A------0h2---------2--4--5\4/5--4--2p0--0--2--4------------------------
E--0h4------0h2h4------------------------------------------------------



E----------------------------------------------------------------------
B----------------------------------------------------------------------
G----------------------------------------------------------------------
D-------------------------------2--4--5\4/5--4--2--0--2----------------
A-------0h2-------0h2--0--2--4---------------------------4--2----------
E--0h4-------0h4-----------------------------------------------4--2--0-



E----------------------------------------------------------------------
B----------------------------------------------------------------------
G------------------------------------------------------------------4-6-
D--------------------4--2\1/2-----------------------------2--4--6------
A-------0h2--2--4/6------------4--2-----------------2--4---------------
E--0h4-------------------------------4--2--0--2--4---------------------




E----------------------------------------------------------------------
B--5-------------------------------------------------------------------
G-----6--4-------------------------------------------------------------
D-----------6--4--2--2--2--2--2--2--2--2-------------------------------
A-----------------2--4--2--4--2--4--2--4---(do the 2 chords------------
E-----------------0--0--0--0--0--0--0--0----12 more times)-------------



E----------------------------------------------------------------------
B----------------------------------------------------------------------
G----------------------------------------------------------------------
D--2-----------------2------------------2--4-------------2-4-----------
A-----4p2--(5 times)---4p2--(5 times)---2--2--(8 times)--2-2-(8 times)-
E---------------------------------------0--0---------------------------



E----------------------------------------------------------------------
B----------------------------------------------------------------------
G----------------------------------------------------------------------
D---------------------------0h2--4--5\4/5--4--2--0--2------------------
A-------0h2-------0h2--0h4-----------------------------4--2------------
E--0h4-------0h4---------------------------------------------4--2--0---


                let ring........
E----------------------------------------------------------------------
B----------------------------------------------------------------------
G-----------------------4-------------------------------2--2--2--2--2--
D-----------------1--4----------2--2--2--2--2--2--2--2--2--4--2--4--2--
A--------2--4---2---------------2--4--2--4--2--4--2--4--0--0--0--0--0--
E--2--4-------------------------0--0--0--0--0--0--0--0-----------------



E----------------------------------------------------------------------
B----------------------------------------------------------------------
G--2--2--2-------------------------------------------------------------
D--2--4--2--2--4--2--4--2--4--2--4--2--2--2--2--2--2--2--2--2--2--2--2-
A--0--0--0--2--2--2--2--2--2--2--2--2--4--2--4--2--4--2--4--2--4--2--4-
E-----------0--0--0--0--0--0--0--0--0--0--0--0--0--0--0--0--0--0--0--0-




E----------------------------------------------------------------------
B----------------------------------------------------------------------
G----------------------------------------------------------------------
D--2--2--2--2----------------------------------------------------------
A--2--4--2--4-------0h2-------0h2-----------2--4--5\4/5--4--2--0--2--4-
E--0--0--0--0--0h4-------0h4-------0--2--4-----------------------------



E----------------------------------------------------------------------
B----------------------------------------------------------------------
G----------------------------------------------------------------------
D--2--4--5\4/5--4--2--0--2---------------------------------------------
A---------------------------4--2----------------0h2-------0h2----------
E---------------------------------4--2--0--0h4-------0h4-------0--2--4-



E----------------------------------------------------------------------
B-----------------------------------------------------5----------------
G-----------------------------------------------4--6-----6--4----------
D------------------------2-----------------4/6-----------------6--4--2-
A--2--4--5\4/5--4--2--0--2-----------2--4------------------------------
E------------------------0--0--2--4------------------------------------
Comments