Cake - Short Skirt Long Jacket Chords & Tabs

 

Short Skirt Long Jacket Chords & Tabs

Cake Chords & Tabs

Version: 1 Type: Tab 1 rating
1 star 2 stars 3 stars 4 stars 5 stars
comments

Short Skirt Long Jacket Tab

   
C A K E
Short Skirt Long Jacket
Tabbed by Aaron Bridgeman (leprosy_head@hotmail.com)

http://bogans.arecool.net

KEY:
h = hammer-on
p = pull-off

MAIN RIFF:
e|---------------------------|
B|---------------------------|
G|---------------------------|
D|---------------------------|
A|-5--3h5p3h5--3h5p3p0-------|
E|---------------------1-3-5-|
[ Tab from: http://www.guitartabs.cc/tabs/c/cake/short_skirt_long_jacket_tab.html ]
PRE-CHORUS:
e|---------3-3-----------|
B|-7----5--3-3----5--7-7-|
G|-7----5--4-4----5--7-7-|
D|-7----5--5-5----5--7-7-|
A|-5----3--5-5----3--5-5-|
E|---------3-3-----------|

CHORUS:
e|--------------------------|
B|--------------------------|
G|--------------------------|
D|--------------------------|
A|-0--0-0-5p0-0-7p0-0-8p0-0-|
E|--------------------------|

I want a girl with a short skirt and a looooooong jacket!
Comments